  0
SECTION
  2
HEADER
  9
$ACADVER
  1
AC1015
  9
$ACADMAINTVER
 70
     6
  9
$DWGCODEPAGE
  3
ANSI_1252
  9
$INSBASE
 10
0.0
 20
0.0
 30
0.0
  9
$EXTMIN
 10
-17.3408760219
 20
-17.3408760219
 30
0.0
  9
$EXTMAX
 10
17.3408760219
 20
17.3408760219
 30
0.0
  9
$LIMMIN
 10
0.0
 20
0.0
  9
$LIMMAX
 10
420.0
 20
297.0
  9
$ORTHOMODE
 70
     0
  9
$REGENMODE
 70
     1
  9
$FILLMODE
 70
     1
  9
$QTEXTMODE
 70
     0
  9
$MIRRTEXT
 70
     1
  9
$LTSCALE
 40
1.0
  9
$ATTMODE
 70
     1
  9
$TEXTSIZE
 40
3.5
  9
$TRACEWID
 40
1.0
  9
$TEXTSTYLE
  7
Standard
  9
$CLAYER
  8
0
  9
$CELTYPE
  6
ByLayer
  9
$CECOLOR
 62
   256
  9
$CELTSCALE
 40
1.0
  9
$DISPSILH
 70
     0
  9
$DIMSCALE
 40
1.0
  9
$DIMASZ
 40
3.302
  9
$DIMEXO
 40
1.0
  9
$DIMDLI
 40
3.75
  9
$DIMRND
 40
0.0
  9
$DIMDLE
 40
0.0
  9
$DIMEXE
 40
1.0
  9
$DIMTP
 40
0.0
  9
$DIMTM
 40
0.0
  9
$DIMTXT
 40
3.5
  9
$DIMCEN
 40
2.5
  9
$DIMTSZ
 40
0.0
  9
$DIMTOL
 70
     0
  9
$DIMLIM
 70
     0
  9
$DIMTIH
 70
     1
  9
$DIMTOH
 70
     1
  9
$DIMSE1
 70
     0
  9
$DIMSE2
 70
     0
  9
$DIMTAD
 70
     1
  9
$DIMZIN
 70
     1
  9
$DIMBLK
  1

  9
$DIMASO
 70
     1
  9
$DIMSHO
 70
     1
  9
$DIMPOST
  1

  9
$DIMAPOST
  1

  9
$DIMALT
 70
     0
  9
$DIMALTD
 70
     3
  9
$DIMALTF
 40
0.0393700787
  9
$DIMLFAC
 40
1.0
  9
$DIMTOFL
 70
     1
  9
$DIMTVP
 40
0.0
  9
$DIMTIX
 70
     0
  9
$DIMSOXD
 70
     0
  9
$DIMSAH
 70
     0
  9
$DIMBLK1
  1

  9
$DIMBLK2
  1

  9
$DIMSTYLE
  2
ISO-25
  9
$DIMCLRD
 70
     0
  9
$DIMCLRE
 70
     0
  9
$DIMCLRT
 70
     0
  9
$DIMTFAC
 40
1.0
  9
$DIMGAP
 40
1.524
  9
$DIMJUST
 70
     0
  9
$DIMSD1
 70
     0
  9
$DIMSD2
 70
     0
  9
$DIMTOLJ
 70
     0
  9
$DIMTZIN
 70
     1
  9
$DIMALTZ
 70
     0
  9
$DIMALTTZ
 70
     0
  9
$DIMUPT
 70
     0
  9
$DIMDEC
 70
     2
  9
$DIMTDEC
 70
     2
  9
$DIMALTU
 70
     2
  9
$DIMALTTD
 70
     3
  9
$DIMTXSTY
  7
Standard
  9
$DIMAUNIT
 70
     0
  9
$DIMADEC
 70
     2
  9
$DIMALTRND
 40
0.0
  9
$DIMAZIN
 70
     0
  9
$DIMDSEP
 70
    44
  9
$DIMATFIT
 70
     3
  9
$DIMFRAC
 70
     0
  9
$DIMLDRBLK
  1

  9
$DIMLUNIT
 70
     2
  9
$DIMLWD
 70
    -2
  9
$DIMLWE
 70
    -2
  9
$DIMTMOVE
 70
     0
  9
$LUNITS
 70
     2
  9
$LUPREC
 70
     2
  9
$SKETCHINC
 40
1.0
  9
$FILLETRAD
 40
10.0
  9
$AUNITS
 70
     0
  9
$AUPREC
 70
     2
  9
$MENU
  1
.
  9
$ELEVATION
 40
0.0
  9
$PELEVATION
 40
0.0
  9
$THICKNESS
 40
0.0
  9
$LIMCHECK
 70
     0
  9
$CHAMFERA
 40
0.0
  9
$CHAMFERB
 40
0.0
  9
$CHAMFERC
 40
0.0
  9
$CHAMFERD
 40
0.0
  9
$SKPOLY
 70
     0
  9
$TDCREATE
 40
2458862.405461204
  9
$TDUCREATE
 40
2458862.405461204
  9
$TDUPDATE
 40
2458862.405496018
  9
$TDUUPDATE
 40
2458862.405496018
  9
$TDINDWG
 40
0.0000000116
  9
$TDUSRTIMER
 40
0.0000000116
  9
$USRTIMER
 70
     1
  9
$ANGBASE
 50
0.0
  9
$ANGDIR
 70
     0
  9
$PDMODE
 70
     0
  9
$PDSIZE
 40
-1.0
  9
$PLINEWID
 40
0.0
  9
$SPLFRAME
 70
     0
  9
$SPLINETYPE
 70
     6
  9
$SPLINESEGS
 70
     8
  9
$HANDSEED
  5
892
  9
$SURFTAB1
 70
     6
  9
$SURFTAB2
 70
     6
  9
$SURFTYPE
 70
     6
  9
$SURFU
 70
     6
  9
$SURFV
 70
     6
  9
$UCSBASE
  2

  9
$UCSNAME
  2

  9
$UCSORG
 10
0.0
 20
0.0
 30
0.0
  9
$UCSXDIR
 10
1.0
 20
0.0
 30
0.0
  9
$UCSYDIR
 10
0.0
 20
1.0
 30
0.0
  9
$UCSORTHOREF
  2

  9
$UCSORTHOVIEW
 70
     0
  9
$UCSORGTOP
 10
0.0
 20
0.0
 30
0.0
  9
$UCSORGBOTTOM
 10
0.0
 20
0.0
 30
0.0
  9
$UCSORGLEFT
 10
0.0
 20
0.0
 30
0.0
  9
$UCSORGRIGHT
 10
0.0
 20
0.0
 30
0.0
  9
$UCSORGFRONT
 10
0.0
 20
0.0
 30
0.0
  9
$UCSORGBACK
 10
0.0
 20
0.0
 30
0.0
  9
$PUCSBASE
  2

  9
$PUCSNAME
  2

  9
$PUCSORG
 10
0.0
 20
0.0
 30
0.0
  9
$PUCSXDIR
 10
1.0
 20
0.0
 30
0.0
  9
$PUCSYDIR
 10
0.0
 20
1.0
 30
0.0
  9
$PUCSORTHOREF
  2

  9
$PUCSORTHOVIEW
 70
     0
  9
$PUCSORGTOP
 10
0.0
 20
0.0
 30
0.0
  9
$PUCSORGBOTTOM
 10
0.0
 20
0.0
 30
0.0
  9
$PUCSORGLEFT
 10
0.0
 20
0.0
 30
0.0
  9
$PUCSORGRIGHT
 10
0.0
 20
0.0
 30
0.0
  9
$PUCSORGFRONT
 10
0.0
 20
0.0
 30
0.0
  9
$PUCSORGBACK
 10
0.0
 20
0.0
 30
0.0
  9
$USERI1
 70
     0
  9
$USERI2
 70
     0
  9
$USERI3
 70
     0
  9
$USERI4
 70
     0
  9
$USERI5
 70
     0
  9
$USERR1
 40
0.0
  9
$USERR2
 40
0.0
  9
$USERR3
 40
0.0
  9
$USERR4
 40
0.0
  9
$USERR5
 40
0.0
  9
$WORLDVIEW
 70
     1
  9
$SHADEDGE
 70
     3
  9
$SHADEDIF
 70
    70
  9
$TILEMODE
 70
     1
  9
$MAXACTVP
 70
    64
  9
$PINSBASE
 10
0.0
 20
0.0
 30
0.0
  9
$PLIMCHECK
 70
     0
  9
$PEXTMIN
 10
-17.3408760219
 20
-30.0
 30
0.0
  9
$PEXTMAX
 10
17.3408760219
 20
16.5
 30
0.0
  9
$PLIMMIN
 10
-22.1101067911
 20
-31.7884615385
  9
$PLIMMAX
 10
48.712970132
 20
18.2884615385
  9
$UNITMODE
 70
     0
  9
$VISRETAIN
 70
     1
  9
$PLINEGEN
 70
     0
  9
$PSLTSCALE
 70
     1
  9
$TREEDEPTH
 70
  3020
  9
$CMLSTYLE
  2
Standard
  9
$CMLJUST
 70
     0
  9
$CMLSCALE
 40
20.0
  9
$PROXYGRAPHICS
 70
     1
  9
$MEASUREMENT
 70
     1
  9
$CELWEIGHT
370
    -1
  9
$ENDCAPS
280
     0
  9
$JOINSTYLE
280
     0
  9
$LWDISPLAY
290
     1
  9
$INSUNITS
 70
     4
  9
$HYPERLINKBASE
  1

  9
$STYLESHEET
  1

  9
$XEDIT
290
     1
  9
$CEPSNTYPE
380
     0
  9
$PSTYLEMODE
290
     1
  9
$FINGERPRINTGUID
  2
{3b4da747-def1-4bc4-917c-912d2dc08330}
  9
$VERSIONGUID
  2
{FAEB1C32-E019-11D5-929B-00C0DF256EC4}
  9
$EXTNAMES
290
     1
  9
$PSVPSCALE
 40
0.0
  9
$OLESTARTUP
290
     0
  0
ENDSEC
  0
SECTION
  2
CLASSES
  0
CLASS
  1
ACDBDICTIONARYWDFLT
  2
AcDbDictionaryWithDefault
  3
ObjectDBX Classes
 90
        0
280
     0
281
     0
  0
CLASS
  1
VISUALSTYLE
  2
AcDbVisualStyle
  3
ObjectDBX Classes
 90
     4095
280
     0
281
     0
  0
CLASS
  1
MATERIAL
  2
AcDbMaterial
  3
ObjectDBX Classes
 90
     1153
280
     0
281
     0
  0
CLASS
  1
SCALE
  2
AcDbScale
  3
ObjectDBX Classes
 90
     1153
280
     0
281
     0
  0
CLASS
  1
TABLESTYLE
  2
AcDbTableStyle
  3
ObjectDBX Classes
 90
     4095
280
     0
281
     0
  0
CLASS
  1
MLEADERSTYLE
  2
AcDbMLeaderStyle
  3
ACDB_MLEADERSTYLE_CLASS
 90
     4095
280
     0
281
     0
  0
CLASS
  1
SUN
  2
AcDbSun
  3
SCENEOE
 90
     1153
280
     0
281
     0
  0
CLASS
  1
ACDBPLACEHOLDER
  2
AcDbPlaceHolder
  3
ObjectDBX Classes
 90
        0
280
     0
281
     0
  0
CLASS
  1
LAYOUT
  2
AcDbLayout
  3
ObjectDBX Classes
 90
        0
280
     0
281
     0
  0
ENDSEC
  0
SECTION
  2
TABLES
  0
TABLE
  2
VPORT
  5
8
330
0
100
AcDbSymbolTable
 70
     1
  0
VPORT
  5
29
330
8
100
AcDbSymbolTableRecord
100
AcDbViewportTableRecord
  2
*Active
 70
     0
 10
0.0
 20
0.0
 11
1.0
 21
1.0
 12
0.0
 22
0.0
 13
0.0
 23
0.0
 14
10.0
 24
10.0
 15
10.0
 25
10.0
 16
0.0
 26
0.0
 36
1.0
 17
0.0
 27
0.0
 37
0.0
 40
35.3753870846
 41
1.0
 42
50.0
 43
0.0
 44
0.0
 50
0.0
 51
0.0
 71
     0
 72
   100
 73
     1
 74
     3
 75
     0
 76
     0
 77
     0
 78
     0
281
     0
 65
     1
110
0.0
120
0.0
130
0.0
111
1.0
121
0.0
131
0.0
112
0.0
122
1.0
132
0.0
 79
     0
146
0.0
  0
ENDTAB
  0
TABLE
  2
LTYPE
  5
5
330
0
100
AcDbSymbolTable
 70
     6
  0
LTYPE
  5
14
330
5
100
AcDbSymbolTableRecord
100
AcDbLinetypeTableRecord
  2
ByBlock
 70
     0
  3

 72
    65
 73
     0
 40
0.0
  0
LTYPE
  5
15
330
5
100
AcDbSymbolTableRecord
100
AcDbLinetypeTableRecord
  2
ByLayer
 70
     0
  3

 72
    65
 73
     0
 40
0.0
  0
LTYPE
  5
16
330
5
100
AcDbSymbolTableRecord
100
AcDbLinetypeTableRecord
  2
Continuous
 70
     0
  3
Solid line
 72
    65
 73
     0
 40
0.0
  0
LTYPE
  5
6E
330
5
100
AcDbSymbolTableRecord
100
AcDbLinetypeTableRecord
  2
HIDDEN
 70
     0
  3
Hidden __ __ __ __ __ __ __ __ __ __ __ __ __ __
 72
    65
 73
     2
 40
1.905
 49
1.27
 74
     0
 49
-0.635
 74
     0
  0
LTYPE
  5
6F
330
5
100
AcDbSymbolTableRecord
100
AcDbLinetypeTableRecord
  2
PHANTOM
 70
     0
  3
Phantom ______  __  __  ______  __  __  ______
 72
    65
 73
     6
 40
12.7
 49
6.35
 74
     0
 49
-1.27
 74
     0
 49
1.27
 74
     0
 49
-1.27
 74
     0
 49
1.27
 74
     0
 49
-1.27
 74
     0
  0
LTYPE
  5
70
330
5
100
AcDbSymbolTableRecord
100
AcDbLinetypeTableRecord
  2
CENTER
 70
     0
  3
Center ____ _ ____ _ ____ _ ____ _ ____ _ ____
 72
    65
 73
     4
 40
10.16
 49
6.35
 74
     0
 49
-1.27
 74
     0
 49
1.27
 74
     0
 49
-1.27
 74
     0
  0
LTYPE
  5
71
330
5
100
AcDbSymbolTableRecord
100
AcDbLinetypeTableRecord
  2
CENTERX2
 70
     0
  3
Center (2x) ________  __  ________  __  _____
 72
    65
 73
     4
 40
20.32
 49
12.7
 74
     0
 49
-2.54
 74
     0
 49
2.54
 74
     0
 49
-2.54
 74
     0
  0
LTYPE
  5
72
330
5
100
AcDbSymbolTableRecord
100
AcDbLinetypeTableRecord
  2
DOT2
 70
     0
  3
Dot (.5x) ........................................
 72
    65
 73
     2
 40
0.635
 49
0.0
 74
     0
 49
-0.635
 74
     0
  0
ENDTAB
  0
TABLE
  2
LAYER
  5
2
330
0
100
AcDbSymbolTable
 70
     1
  0
LAYER
  5
10
330
2
100
AcDbSymbolTableRecord
100
AcDbLayerTableRecord
  2
0
 70
     0
 62
     7
  6
Continuous
370
    -3
390
F
  0
ENDTAB
  0
TABLE
  2
STYLE
  5
3
330
0
100
AcDbSymbolTable
 70
     1
  0
STYLE
  5
11
330
3
100
AcDbSymbolTableRecord
100
AcDbTextStyleTableRecord
  2
Standard
 70
     0
 40
0.0
 41
1.0
 50
0.0
 71
     0
 42
3.5
  3
txt
  4

  0
ENDTAB
  0
TABLE
  2
VIEW
  5
6
330
0
100
AcDbSymbolTable
 70
     0
  0
ENDTAB
  0
TABLE
  2
UCS
  5
7
330
0
100
AcDbSymbolTable
 70
     0
  0
ENDTAB
  0
TABLE
  2
APPID
  5
9
330
0
100
AcDbSymbolTable
 70
     1
  0
APPID
  5
12
330
9
100
AcDbSymbolTableRecord
100
AcDbRegAppTableRecord
  2
ACAD
 70
     0
  0
ENDTAB
  0
TABLE
  2
DIMSTYLE
  5
A
330
0
100
AcDbSymbolTable
 70
     1
100
AcDbDimStyleTable
  0
DIMSTYLE
105
27
330
A
100
AcDbSymbolTableRecord
100
AcDbDimStyleTableRecord
  2
ISO-25
 70
     0
 41
2.5
 42
0.625
 43
3.75
 44
1.25
 73
     0
 74
     0
 77
     1
 78
     8
140
2.5
141
2.5
143
0.0393700787
147
0.625
171
     3
172
     1
178
     0
271
     2
272
     2
274
     3
278
    44
283
     0
284
     8
340
11
  0
ENDTAB
  0
TABLE
  2
BLOCK_RECORD
  5
1
330
0
100
AcDbSymbolTable
 70
     7
  0
BLOCK_RECORD
  5
1F
330
1
100
AcDbSymbolTableRecord
100
AcDbBlockTableRecord
  2
*Model_Space
340
22
  0
BLOCK_RECORD
  5
1B
330
1
100
AcDbSymbolTableRecord
100
AcDbBlockTableRecord
  2
*Paper_Space
340
1E
  0
BLOCK_RECORD
  5
23
330
1
100
AcDbSymbolTableRecord
100
AcDbBlockTableRecord
  2
*Paper_Space0
340
26
  0
BLOCK_RECORD
  5
2F0
330
1
100
AcDbSymbolTableRecord
100
AcDbBlockTableRecord
  2
*Paper_Space1
340
2F1
  0
BLOCK_RECORD
  5
3DA
330
1
100
AcDbSymbolTableRecord
100
AcDbBlockTableRecord
  2
*Paper_Space2
340
3DB
  0
BLOCK_RECORD
  5
4BD
330
1
100
AcDbSymbolTableRecord
100
AcDbBlockTableRecord
  2
*Paper_Space3
340
4BE
  0
BLOCK_RECORD
  5
58B
330
1
100
AcDbSymbolTableRecord
100
AcDbBlockTableRecord
  2
*Paper_Space4
340
58C
  0
BLOCK_RECORD
  5
687
330
1
100
AcDbSymbolTableRecord
100
AcDbBlockTableRecord
  2
*Paper_Space5
340
688
  0
BLOCK_RECORD
  5
783
330
1
100
AcDbSymbolTableRecord
100
AcDbBlockTableRecord
  2
*Paper_Space6
340
784
  0
ENDTAB
  0
ENDSEC
  0
SECTION
  2
BLOCKS
  0
BLOCK
  5
20
330
1F
100
AcDbEntity
  8
0
100
AcDbBlockBegin
  2
*Model_Space
 70
     0
 10
0.0
 20
0.0
 30
0.0
  3
*Model_Space
  1

  0
ENDBLK
  5
21
330
1F
100
AcDbEntity
  8
0
100
AcDbBlockEnd
  0
BLOCK
  5
1C
330
1B
100
AcDbEntity
 67
     1
  8
0
100
AcDbBlockBegin
  2
*Paper_Space
 70
     0
 10
0.0
 20
0.0
 30
0.0
  3
*Paper_Space
  1

  0
ENDBLK
  5
1D
330
1B
100
AcDbEntity
 67
     1
  8
0
100
AcDbBlockEnd
  0
BLOCK
  5
24
330
23
100
AcDbEntity
  8
0
100
AcDbBlockBegin
  2
*Paper_Space0
 70
     0
 10
0.0
 20
0.0
 30
0.0
  3
*Paper_Space0
  1

  0
LINE
  5
28D
330
23
100
AcDbEntity
  8
0
  6
Continuous
 62
     7
370
    25
100
AcDbLine
 10
10.5
 20
-15.3518268283
 30
0.0
 11
10.5
 21
-13.5
 31
0.0
  0
LINE
  5
28E
330
23
100
AcDbEntity
  8
0
  6
Continuous
 62
     7
370
    25
100
AcDbLine
 10
-10.5
 20
-13.5
 30
0.0
 11
-10.5
 21
-15.3518268283
 31
0.0
  0
LINE
  5
28F
330
23
100
AcDbEntity
  8
0
  6
Continuous
 62
     7
370
    25
100
AcDbLine
 10
10.5
 20
-30.0
 30
0.0
 11
10.5
 21
-27.86037961
 31
0.0
  0
LINE
  5
290
330
23
100
AcDbEntity
  8
0
  6
Continuous
 62
     7
370
    25
100
AcDbLine
 10
-10.5
 20
-27.86037961
 30
0.0
 11
-10.5
 21
-30.0
 31
0.0
  0
LINE
  5
291
330
23
100
AcDbEntity
  8
0
  6
Continuous
 62
     7
370
    25
100
AcDbLine
 10
-10.3582507531
 20
-15.5431559942
 30
0.0
 11
-7.2154215926
 21
-16.5
 31
0.0
  0
LINE
  5
292
330
23
100
AcDbEntity
  8
0
  6
Continuous
 62
     7
370
    25
100
AcDbLine
 10
7.2154215926
 20
-16.5
 30
0.0
 11
10.3582507531
 21
-15.5431559942
 31
0.0
  0
LINE
  5
293
330
23
100
AcDbEntity
  8
0
  6
Continuous
 62
     7
370
    25
100
AcDbLine
 10
10.158113883
 20
-27.386037961
 30
0.0
 11
9.1367544468
 21
-27.0455848156
 31
0.0
  0
LINE
  5
294
330
23
100
AcDbEntity
  8
0
  6
Continuous
 62
     7
370
    25
100
AcDbLine
 10
-9.1367544468
 20
-27.0455848156
 30
0.0
 11
-10.158113883
 21
-27.386037961
 31
0.0
  0
LINE
  5
295
330
23
100
AcDbEntity
  8
0
  6
Continuous
 62
     7
370
    25
100
AcDbLine
 10
9.0
 20
-26.855848156
 30
0.0
 11
9.0
 21
-25.6865030172
 31
0.0
  0
LINE
  5
296
330
23
100
AcDbEntity
  8
0
  6
Continuous
 62
     7
370
    25
100
AcDbLine
 10
-9.0
 20
-25.6865030172
 30
0.0
 11
-9.0
 21
-26.855848156
 31
0.0
  0
LINE
  5
297
330
23
100
AcDbEntity
  8
0
  6
Continuous
 62
     7
370
    25
100
AcDbLine
 10
8.8139512947
 20
-25.4869902072
 30
0.0
 11
8.2294069587
 21
-25.4461148853
 31
0.0
  0
LINE
  5
298
330
23
100
AcDbEntity
  8
0
  6
Continuous
 62
     7
370
    25
100
AcDbLine
 10
-8.2294069587
 20
-25.4461148853
 30
0.0
 11
-8.8139512947
 21
-25.4869902072
 31
0.0
  0
LINE
  5
299
330
23
100
AcDbEntity
  8
0
  6
Continuous
 62
     7
370
    25
100
AcDbLine
 10
10.5
 20
-13.5
 30
0.0
 11
-10.5
 21
-13.5
 31
0.0
  0
LINE
  5
29A
330
23
100
AcDbEntity
  8
0
  6
Continuous
 62
     7
370
    25
100
AcDbLine
 10
10.5
 20
-30.0
 30
0.0
 11
-10.5
 21
-30.0
 31
0.0
  0
LINE
  5
29B
330
23
100
AcDbEntity
  8
0
  6
Continuous
 62
     7
370
    25
100
AcDbLine
 10
17.3408760219
 20
0.0
 30
0.0
 11
-17.3408760219
 21
0.0
 31
0.0
  0
LINE
  5
29C
330
23
100
AcDbEntity
  8
0
  6
Continuous
 62
     7
370
    25
100
AcDbLine
 10
4.1532124827
 20
7.5
 30
0.0
 11
-4.1532124827
 21
-7.5
 31
0.0
  0
LINE
  5
29D
330
23
100
AcDbEntity
  8
0
  6
Continuous
 62
     7
370
    25
100
AcDbLine
 10
-4.1532124827
 20
-7.5
 30
0.0
 11
-8.6704380109
 21
0.0
 31
0.0
  0
LINE
  5
29E
330
23
100
AcDbEntity
  8
0
  6
Continuous
 62
     7
370
    25
100
AcDbLine
 10
4.1532124827
 20
-7.5
 30
0.0
 11
8.6704380109
 21
0.0
 31
0.0
  0
LINE
  5
29F
330
23
100
AcDbEntity
  8
0
  6
Continuous
 62
     7
370
    25
100
AcDbLine
 10
4.1532124827
 20
-7.5
 30
0.0
 11
-4.1532124827
 21
7.5
 31
0.0
  0
LINE
  5
2A0
330
23
100
AcDbEntity
  8
0
  6
Continuous
 62
     7
370
    25
100
AcDbLine
 10
4.1532124827
 20
7.5
 30
0.0
 11
8.6704380109
 21
0.0
 31
0.0
  0
LINE
  5
2A1
330
23
100
AcDbEntity
  8
0
  6
Continuous
 62
     7
370
    25
100
AcDbLine
 10
-15.5
 20
-7.5
 30
0.0
 11
15.5
 21
-7.5
 31
0.0
  0
LINE
  5
2A2
330
23
100
AcDbEntity
  8
0
  6
Continuous
 62
     7
370
    25
100
AcDbLine
 10
-15.5
 20
7.5
 30
0.0
 11
15.5
 21
7.5
 31
0.0
  0
LINE
  5
2A3
330
23
100
AcDbEntity
  8
0
  6
Continuous
 62
     7
370
    25
100
AcDbLine
 10
-4.1532124827
 20
7.5
 30
0.0
 11
-8.6704380109
 21
0.0
 31
0.0
  0
LINE
  5
2A4
330
23
100
AcDbEntity
  8
0
  6
Continuous
 62
     7
370
    25
100
AcDbLine
 10
-11.3467875173
 20
-7.5
 30
0.0
 11
-8.6704380109
 21
0.0
 31
0.0
  0
LINE
  5
2A5
330
23
100
AcDbEntity
  8
0
  6
Continuous
 62
     7
370
    25
100
AcDbLine
 10
-4.1532124827
 20
-7.5
 30
0.0
 11
0.0
 21
-13.0
 31
0.0
  0
LINE
  5
2A6
330
23
100
AcDbEntity
  8
0
  6
Continuous
 62
     7
370
    25
100
AcDbLine
 10
-11.1292189394
 20
-13.0
 30
0.0
 11
11.1292189394
 21
-13.0
 31
0.0
  0
LINE
  5
2A7
330
23
100
AcDbEntity
  8
0
  6
Continuous
 62
     7
370
    25
100
AcDbLine
 10
-4.1532124827
 20
-7.5
 30
0.0
 11
-5.5646094697
 21
-13.0
 31
0.0
  0
LINE
  5
2A8
330
23
100
AcDbEntity
  8
0
  6
Continuous
 62
     7
370
    25
100
AcDbLine
 10
-11.3467875173
 20
7.5
 30
0.0
 11
-8.6704380109
 21
0.0
 31
0.0
  0
LINE
  5
2A9
330
23
100
AcDbEntity
  8
0
  6
Continuous
 62
     7
370
    25
100
AcDbLine
 10
-11.3467875173
 20
-7.5
 30
0.0
 11
-5.5646094697
 21
-13.0
 31
0.0
  0
LINE
  5
2AA
330
23
100
AcDbEntity
  8
0
  6
Continuous
 62
     7
370
    25
100
AcDbLine
 10
-4.1532124827
 20
7.5
 30
0.0
 11
0.0
 21
13.0
 31
0.0
  0
LINE
  5
2AB
330
23
100
AcDbEntity
  8
0
  6
Continuous
 62
     7
370
    25
100
AcDbLine
 10
4.1532124827
 20
7.5
 30
0.0
 11
0.0
 21
13.0
 31
0.0
  0
LINE
  5
2AC
330
23
100
AcDbEntity
  8
0
  6
Continuous
 62
     7
370
    25
100
AcDbLine
 10
4.1532124827
 20
-7.5
 30
0.0
 11
0.0
 21
-13.0
 31
0.0
  0
LINE
  5
2AD
330
23
100
AcDbEntity
  8
0
  6
Continuous
 62
     7
370
    25
100
AcDbLine
 10
-11.1292189394
 20
13.0
 30
0.0
 11
11.1292189394
 21
13.0
 31
0.0
  0
LINE
  5
2AE
330
23
100
AcDbEntity
  8
0
  6
Continuous
 62
     7
370
    25
100
AcDbLine
 10
-4.1532124827
 20
7.5
 30
0.0
 11
-5.5646094697
 21
13.0
 31
0.0
  0
LINE
  5
2AF
330
23
100
AcDbEntity
  8
0
  6
Continuous
 62
     7
370
    25
100
AcDbLine
 10
-11.3467875173
 20
7.5
 30
0.0
 11
-5.5646094697
 21
13.0
 31
0.0
  0
LINE
  5
2B0
330
23
100
AcDbEntity
  8
0
  6
Continuous
 62
     7
370
    25
100
AcDbLine
 10
4.1532124827
 20
-7.5
 30
0.0
 11
5.5646094697
 21
-13.0
 31
0.0
  0
LINE
  5
2B1
330
23
100
AcDbEntity
  8
0
  6
Continuous
 62
     7
370
    25
100
AcDbLine
 10
11.3467875173
 20
-7.5
 30
0.0
 11
8.6704380109
 21
0.0
 31
0.0
  0
LINE
  5
2B2
330
23
100
AcDbEntity
  8
0
  6
Continuous
 62
     7
370
    25
100
AcDbLine
 10
11.3467875173
 20
-7.5
 30
0.0
 11
5.5646094697
 21
-13.0
 31
0.0
  0
LINE
  5
2B3
330
23
100
AcDbEntity
  8
0
  6
Continuous
 62
     7
370
    25
100
AcDbLine
 10
11.3467875173
 20
7.5
 30
0.0
 11
8.6704380109
 21
0.0
 31
0.0
  0
LINE
  5
2B4
330
23
100
AcDbEntity
  8
0
  6
Continuous
 62
     7
370
    25
100
AcDbLine
 10
4.1532124827
 20
7.5
 30
0.0
 11
5.5646094697
 21
13.0
 31
0.0
  0
LINE
  5
2B5
330
23
100
AcDbEntity
  8
0
  6
Continuous
 62
     7
370
    25
100
AcDbLine
 10
11.3467875173
 20
7.5
 30
0.0
 11
5.5646094697
 21
13.0
 31
0.0
  0
LINE
  5
2B6
330
23
100
AcDbEntity
  8
0
  6
Continuous
 62
     7
370
    25
100
AcDbLine
 10
-11.3467875173
 20
-7.5
 30
0.0
 11
-15.0176391588
 21
0.0
 31
0.0
  0
LINE
  5
2B7
330
23
100
AcDbEntity
  8
0
  6
Continuous
 62
     7
370
    25
100
AcDbLine
 10
-11.3467875173
 20
7.5
 30
0.0
 11
-15.0176391588
 21
0.0
 31
0.0
  0
LINE
  5
2B8
330
23
100
AcDbEntity
  8
0
  6
Continuous
 62
     7
370
    25
100
AcDbLine
 10
11.3467875173
 20
7.5
 30
0.0
 11
15.0176391588
 21
0.0
 31
0.0
  0
LINE
  5
2B9
330
23
100
AcDbEntity
  8
0
  6
Continuous
 62
     7
370
    25
100
AcDbLine
 10
11.3467875173
 20
-7.5
 30
0.0
 11
15.0176391588
 21
0.0
 31
0.0
  0
LINE
  5
2BA
330
23
100
AcDbEntity
  8
0
  6
Continuous
 62
     7
370
    25
100
AcDbLine
 10
-11.3467875173
 20
7.5
 30
0.0
 11
-9.6381863258
 21
13.0
 31
0.0
  0
LINE
  5
2BB
330
23
100
AcDbEntity
  8
0
  6
Continuous
 62
     7
370
    25
100
AcDbLine
 10
-15.5
 20
7.5
 30
0.0
 11
-15.0176391588
 21
0.0
 31
0.0
  0
LINE
  5
2BC
330
23
100
AcDbEntity
  8
0
  6
Continuous
 62
     7
370
    25
100
AcDbLine
 10
-15.5
 20
-7.5
 30
0.0
 11
-15.0176391588
 21
0.0
 31
0.0
  0
LINE
  5
2BD
330
23
100
AcDbEntity
  8
0
  6
Continuous
 62
     7
370
    25
100
AcDbLine
 10
-15.5
 20
7.5
 30
0.0
 11
-9.6381863258
 21
13.0
 31
0.0
  0
LINE
  5
2BE
330
23
100
AcDbEntity
  8
0
  6
Continuous
 62
     7
370
    25
100
AcDbLine
 10
-11.3467875173
 20
-7.5
 30
0.0
 11
-9.6381863258
 21
-13.0
 31
0.0
  0
LINE
  5
2BF
330
23
100
AcDbEntity
  8
0
  6
Continuous
 62
     7
370
    25
100
AcDbLine
 10
-15.5
 20
-7.5
 30
0.0
 11
-9.6381863258
 21
-13.0
 31
0.0
  0
LINE
  5
2C0
330
23
100
AcDbEntity
  8
0
  6
Continuous
 62
     7
370
    25
100
AcDbLine
 10
11.3467875173
 20
7.5
 30
0.0
 11
9.6381863258
 21
13.0
 31
0.0
  0
LINE
  5
2C1
330
23
100
AcDbEntity
  8
0
  6
Continuous
 62
     7
370
    25
100
AcDbLine
 10
11.3467875173
 20
-7.5
 30
0.0
 11
9.6381863258
 21
-13.0
 31
0.0
  0
LINE
  5
2C2
330
23
100
AcDbEntity
  8
0
  6
Continuous
 62
     7
370
    25
100
AcDbLine
 10
15.5
 20
-7.5
 30
0.0
 11
9.6381863258
 21
-13.0
 31
0.0
  0
LINE
  5
2C3
330
23
100
AcDbEntity
  8
0
  6
Continuous
 62
     7
370
    25
100
AcDbLine
 10
15.5
 20
-7.5
 30
0.0
 11
15.0176391588
 21
0.0
 31
0.0
  0
LINE
  5
2C4
330
23
100
AcDbEntity
  8
0
  6
Continuous
 62
     7
370
    25
100
AcDbLine
 10
15.5
 20
7.5
 30
0.0
 11
9.6381863258
 21
13.0
 31
0.0
  0
LINE
  5
2C5
330
23
100
AcDbEntity
  8
0
  6
Continuous
 62
     7
370
    25
100
AcDbLine
 10
15.5
 20
7.5
 30
0.0
 11
15.0176391588
 21
0.0
 31
0.0
  0
LINE
  5
2C6
330
23
100
AcDbEntity
  8
0
  6
Continuous
 62
     7
370
    25
100
AcDbLine
 10
4.7696652597
 20
-13.5
 30
0.0
 11
5.5646094697
 21
-13.0
 31
0.0
  0
LINE
  5
2C7
330
23
100
AcDbEntity
  8
0
  6
Continuous
 62
     7
370
    25
100
AcDbLine
 10
0.0
 20
-13.5
 30
0.0
 11
0.0
 21
-13.0
 31
0.0
  0
LINE
  5
2C8
330
23
100
AcDbEntity
  8
0
  6
Continuous
 62
     7
370
    25
100
AcDbLine
 10
0.0
 20
16.5
 30
0.0
 11
0.0
 21
13.0
 31
0.0
  0
LINE
  5
2C9
330
23
100
AcDbEntity
  8
0
  6
Continuous
 62
     7
370
    25
100
AcDbLine
 10
0.0
 20
16.5
 30
0.0
 11
-5.5646094697
 21
13.0
 31
0.0
  0
LINE
  5
2CA
330
23
100
AcDbEntity
  8
0
  6
Continuous
 62
     7
370
    25
100
AcDbLine
 10
0.0
 20
16.5
 30
0.0
 11
5.5646094697
 21
13.0
 31
0.0
  0
LINE
  5
2CB
330
23
100
AcDbEntity
  8
0
  6
Continuous
 62
     7
370
    25
100
AcDbLine
 10
-4.7696652597
 20
-13.5
 30
0.0
 11
-5.5646094697
 21
-13.0
 31
0.0
  0
LINE
  5
2CC
330
23
100
AcDbEntity
  8
0
  6
Continuous
 62
     7
370
    25
100
AcDbLine
 10
-8.261302565
 20
-13.5
 30
0.0
 11
-9.6381863258
 21
-13.0
 31
0.0
  0
LINE
  5
2CD
330
23
100
AcDbEntity
  8
0
  6
Continuous
 62
     7
370
    25
100
AcDbLine
 10
0.0
 20
16.5
 30
0.0
 11
-9.6381863258
 21
13.0
 31
0.0
  0
LINE
  5
2CE
330
23
100
AcDbEntity
  8
0
  6
Continuous
 62
     7
370
    25
100
AcDbLine
 10
8.261302565
 20
-13.5
 30
0.0
 11
9.6381863258
 21
-13.0
 31
0.0
  0
LINE
  5
2CF
330
23
100
AcDbEntity
  8
0
  6
Continuous
 62
     7
370
    25
100
AcDbLine
 10
0.0
 20
16.5
 30
0.0
 11
9.6381863258
 21
13.0
 31
0.0
  0
LINE
  5
2D0
330
23
100
AcDbEntity
  8
0
  6
Continuous
 62
     7
370
    25
100
AcDbLine
 10
-15.5
 20
-7.5
 30
0.0
 11
-17.3408760219
 21
0.0
 31
0.0
  0
LINE
  5
2D1
330
23
100
AcDbEntity
  8
0
  6
Continuous
 62
     7
370
    25
100
AcDbLine
 10
-15.5
 20
7.5
 30
0.0
 11
-17.3408760219
 21
0.0
 31
0.0
  0
LINE
  5
2D2
330
23
100
AcDbEntity
  8
0
  6
Continuous
 62
     7
370
    25
100
AcDbLine
 10
17.3408760219
 20
0.0
 30
0.0
 11
15.5
 21
-7.5
 31
0.0
  0
LINE
  5
2D3
330
23
100
AcDbEntity
  8
0
  6
Continuous
 62
     7
370
    25
100
AcDbLine
 10
17.3408760219
 20
0.0
 30
0.0
 11
15.5
 21
7.5
 31
0.0
  0
LINE
  5
2D4
330
23
100
AcDbEntity
  8
0
  6
Continuous
 62
     7
370
    25
100
AcDbLine
 10
0.0
 20
16.5
 30
0.0
 11
-11.1292189394
 21
13.0
 31
0.0
  0
LINE
  5
2D5
330
23
100
AcDbEntity
  8
0
  6
Continuous
 62
     7
370
    25
100
AcDbLine
 10
-9.5393305195
 20
-13.5
 30
0.0
 11
-11.1292189394
 21
-13.0
 31
0.0
  0
LINE
  5
2D6
330
23
100
AcDbEntity
  8
0
  6
Continuous
 62
     7
370
    25
100
AcDbLine
 10
-15.5
 20
-7.5
 30
0.0
 11
-11.1292189394
 21
-13.0
 31
0.0
  0
LINE
  5
2D7
330
23
100
AcDbEntity
  8
0
  6
Continuous
 62
     7
370
    25
100
AcDbLine
 10
-15.5
 20
7.5
 30
0.0
 11
-11.1292189394
 21
13.0
 31
0.0
  0
LINE
  5
2D8
330
23
100
AcDbEntity
  8
0
  6
Continuous
 62
     7
370
    25
100
AcDbLine
 10
11.1292189394
 20
13.0
 30
0.0
 11
15.5
 21
7.5
 31
0.0
  0
LINE
  5
2D9
330
23
100
AcDbEntity
  8
0
  6
Continuous
 62
     7
370
    25
100
AcDbLine
 10
9.5393305195
 20
-13.5
 30
0.0
 11
11.1292189394
 21
-13.0
 31
0.0
  0
LINE
  5
2DA
330
23
100
AcDbEntity
  8
0
  6
Continuous
 62
     7
370
    25
100
AcDbLine
 10
11.1292189394
 20
-13.0
 30
0.0
 11
15.5
 21
-7.5
 31
0.0
  0
LINE
  5
2DB
330
23
100
AcDbEntity
  8
0
  6
Continuous
 62
     7
370
    25
100
AcDbLine
 10
0.0
 20
16.5
 30
0.0
 11
11.1292189394
 21
13.0
 31
0.0
  0
LINE
  5
2DC
330
23
100
AcDbEntity
  8
0
  6
Continuous
 62
     8
370
    25
100
AcDbLine
 10
10.5
 20
-27.86037961
 30
0.0
 11
-10.5
 21
-27.86037961
 31
0.0
  0
LINE
  5
2DD
330
23
100
AcDbEntity
  8
0
  6
Continuous
 62
     8
370
    25
100
AcDbLine
 10
-10.158113883
 20
-27.386037961
 30
0.0
 11
10.158113883
 21
-27.386037961
 31
0.0
  0
LINE
  5
2DE
330
23
100
AcDbEntity
  8
0
  6
Continuous
 62
     8
370
    25
100
AcDbLine
 10
10.3582507531
 20
-15.5431559942
 30
0.0
 11
-10.3582507531
 21
-15.5431559942
 31
0.0
  0
LINE
  5
2DF
330
23
100
AcDbEntity
  8
0
  6
Continuous
 62
     8
370
    25
100
AcDbLine
 10
-10.5
 20
-15.3518268283
 30
0.0
 11
10.5
 21
-15.3518268283
 31
0.0
  0
LINE
  5
2E0
330
23
100
AcDbEntity
  8
0
  6
Continuous
 62
     8
370
    25
100
AcDbLine
 10
7.2154215926
 20
-16.5
 30
0.0
 11
-7.2154215926
 21
-16.5
 31
0.0
  0
LINE
  5
2E1
330
23
100
AcDbEntity
  8
0
  6
Continuous
 62
     8
370
    25
100
AcDbLine
 10
9.1367544468
 20
-27.0455848156
 30
0.0
 11
-9.1367544468
 21
-27.0455848156
 31
0.0
  0
LINE
  5
2E2
330
23
100
AcDbEntity
  8
0
  6
Continuous
 62
     8
370
    25
100
AcDbLine
 10
-9.0
 20
-26.855848156
 30
0.0
 11
9.0
 21
-26.855848156
 31
0.0
  0
LINE
  5
2E3
330
23
100
AcDbEntity
  8
0
  6
Continuous
 62
     8
370
    25
100
AcDbLine
 10
9.0
 20
-25.6865030172
 30
0.0
 11
-9.0
 21
-25.6865030172
 31
0.0
  0
LINE
  5
2E4
330
23
100
AcDbEntity
  8
0
  6
Continuous
 62
     8
370
    25
100
AcDbLine
 10
-8.8139512947
 20
-25.4869902072
 30
0.0
 11
8.8139512947
 21
-25.4869902072
 31
0.0
  0
LINE
  5
2E5
330
23
100
AcDbEntity
  8
0
  6
Continuous
 62
     8
370
    25
100
AcDbLine
 10
8.2294069587
 20
-25.4461148853
 30
0.0
 11
-8.2294069587
 21
-25.4461148853
 31
0.0
  0
ARC
  5
2E6
330
23
100
AcDbEntity
  8
0
  6
Continuous
 62
     7
370
    25
100
AcDbCircle
 10
-10.0
 20
-27.86037961
 30
0.0
 40
0.5000000000000115
100
AcDbArc
 50
108.4349488229
 51
180.0
  0
ARC
  5
2E7
330
23
100
AcDbEntity
  8
0
  6
Continuous
 62
     7
370
    25
100
AcDbCircle
 10
10.0
 20
-27.86037961
 30
0.0
 40
0.5000000000000014
100
AcDbArc
 50
0.0
 51
71.5650511771
  0
ARC
  5
2E8
330
23
100
AcDbEntity
  8
0
  6
Continuous
 62
     7
370
    25
100
AcDbCircle
 10
-10.3
 20
-15.3518268283
 30
0.0
 40
0.2000000000000009
100
AcDbArc
 50
180.0
 51
253.0669679394
  0
ARC
  5
2E9
330
23
100
AcDbEntity
  8
0
  6
Continuous
 62
     7
370
    25
100
AcDbCircle
 10
10.3
 20
-15.3518268283
 30
0.0
 40
0.2000000000000025
100
AcDbArc
 50
286.9330320606
 51
0.0
  0
ARC
  5
2EA
330
23
100
AcDbEntity
  8
0
  6
Continuous
 62
     7
370
    25
100
AcDbCircle
 10
9.2
 20
-26.855848156
 30
0.0
 40
0.2000000000000082
100
AcDbArc
 50
180.0
 51
251.5650511771
  0
ARC
  5
2EB
330
23
100
AcDbEntity
  8
0
  6
Continuous
 62
     7
370
    25
100
AcDbCircle
 10
-9.2
 20
-26.855848156
 30
0.0
 40
0.200000000000004
100
AcDbArc
 50
288.4349488229
 51
0.0
  0
ARC
  5
2EC
330
23
100
AcDbEntity
  8
0
  6
Continuous
 62
     7
370
    25
100
AcDbCircle
 10
-8.8
 20
-25.6865030172
 30
0.0
 40
0.2000000000000082
100
AcDbArc
 50
94.0
 51
180.0
  0
ARC
  5
2ED
330
23
100
AcDbEntity
  8
0
  6
Continuous
 62
     7
370
    25
100
AcDbCircle
 10
8.8
 20
-25.6865030172
 30
0.0
 40
0.2000000000000046
100
AcDbArc
 50
0.0
 51
86.0
  0
ARC
  5
2EE
330
23
100
AcDbEntity
  8
0
  6
Continuous
 62
     7
370
    25
100
AcDbCircle
 10
8.548742888
 20
-20.8793983369
 30
0.0
 40
4.577868004826208
100
AcDbArc
 50
106.9330320606
 51
266.0
  0
ARC
  5
2EF
330
23
100
AcDbEntity
  8
0
  6
Continuous
 62
     7
370
    25
100
AcDbCircle
 10
-8.548742888
 20
-20.8793983369
 30
0.0
 40
4.57786800482621
100
AcDbArc
 50
274.0
 51
73.0669679394
  0
VIEWPORT
  5
884
330
23
100
AcDbEntity
  8
0
100
AcDbViewport
 10
0.0
 20
0.0
 30
0.0
 40
205.6
 41
156.0
 68
     1
 69
     1
 12
0.0
 22
0.0
 13
0.0
 23
0.0
 14
10.0
 24
10.0
 15
10.0
 25
10.0
 16
0.0
 26
0.0
 36
1.0
 17
0.0
 27
0.0
 37
0.0
 42
50.0
 43
0.0
 44
0.0
 45
35.3753870846
 50
0.0
 51
0.0
 72
   100
 90
   557152
  1

281
     0
 71
     1
 74
     0
110
0.0
120
0.0
130
0.0
111
1.0
121
0.0
131
0.0
112
0.0
122
1.0
132
0.0
 79
     0
146
0.0
  0
ENDBLK
  5
25
330
23
100
AcDbEntity
  8
0
100
AcDbBlockEnd
  0
BLOCK
  5
2F2
330
2F0
100
AcDbEntity
  8
0
100
AcDbBlockBegin
  2
*Paper_Space1
 70
     0
 10
0.0
 20
0.0
 30
0.0
  3
*Paper_Space1
  1

  0
LINE
  5
377
330
2F0
100
AcDbEntity
  8
0
  6
Continuous
 62
     7
370
    25
100
AcDbLine
 10
10.5
 20
-30.0
 30
0.0
 11
10.5
 21
-27.86037961
 31
0.0
  0
LINE
  5
378
330
2F0
100
AcDbEntity
  8
0
  6
Continuous
 62
     7
370
    25
100
AcDbLine
 10
-10.5
 20
-27.86037961
 30
0.0
 11
-10.5
 21
-30.0
 31
0.0
  0
LINE
  5
379
330
2F0
100
AcDbEntity
  8
0
  6
Continuous
 62
     7
370
    25
100
AcDbLine
 10
10.5
 20
-15.3518268283
 30
0.0
 11
10.5
 21
-13.5
 31
0.0
  0
LINE
  5
37A
330
2F0
100
AcDbEntity
  8
0
  6
Continuous
 62
     7
370
    25
100
AcDbLine
 10
-10.5
 20
-13.5
 30
0.0
 11
-10.5
 21
-15.3518268283
 31
0.0
  0
LINE
  5
37B
330
2F0
100
AcDbEntity
  8
0
  6
Continuous
 62
     7
370
    25
100
AcDbLine
 10
-10.3582507531
 20
-15.5431559942
 30
0.0
 11
-7.2154215926
 21
-16.5
 31
0.0
  0
LINE
  5
37C
330
2F0
100
AcDbEntity
  8
0
  6
Continuous
 62
     7
370
    25
100
AcDbLine
 10
7.2154215926
 20
-16.5
 30
0.0
 11
10.3582507531
 21
-15.5431559942
 31
0.0
  0
LINE
  5
37D
330
2F0
100
AcDbEntity
  8
0
  6
Continuous
 62
     7
370
    25
100
AcDbLine
 10
10.158113883
 20
-27.386037961
 30
0.0
 11
9.1367544468
 21
-27.0455848156
 31
0.0
  0
LINE
  5
37E
330
2F0
100
AcDbEntity
  8
0
  6
Continuous
 62
     7
370
    25
100
AcDbLine
 10
-9.1367544468
 20
-27.0455848156
 30
0.0
 11
-10.158113883
 21
-27.386037961
 31
0.0
  0
LINE
  5
37F
330
2F0
100
AcDbEntity
  8
0
  6
Continuous
 62
     7
370
    25
100
AcDbLine
 10
9.0
 20
-26.855848156
 30
0.0
 11
9.0
 21
-25.6865030172
 31
0.0
  0
LINE
  5
380
330
2F0
100
AcDbEntity
  8
0
  6
Continuous
 62
     7
370
    25
100
AcDbLine
 10
-9.0
 20
-25.6865030172
 30
0.0
 11
-9.0
 21
-26.855848156
 31
0.0
  0
LINE
  5
381
330
2F0
100
AcDbEntity
  8
0
  6
Continuous
 62
     7
370
    25
100
AcDbLine
 10
8.8139512947
 20
-25.4869902072
 30
0.0
 11
8.2294069587
 21
-25.4461148853
 31
0.0
  0
LINE
  5
382
330
2F0
100
AcDbEntity
  8
0
  6
Continuous
 62
     7
370
    25
100
AcDbLine
 10
-8.2294069587
 20
-25.4461148853
 30
0.0
 11
-8.8139512947
 21
-25.4869902072
 31
0.0
  0
LINE
  5
383
330
2F0
100
AcDbEntity
  8
0
  6
Continuous
 62
     7
370
    25
100
AcDbLine
 10
10.5
 20
-30.0
 30
0.0
 11
-10.5
 21
-30.0
 31
0.0
  0
LINE
  5
384
330
2F0
100
AcDbEntity
  8
0
  6
Continuous
 62
     7
370
    25
100
AcDbLine
 10
10.5
 20
-13.5
 30
0.0
 11
-10.5
 21
-13.5
 31
0.0
  0
LINE
  5
385
330
2F0
100
AcDbEntity
  8
0
  6
Continuous
 62
     7
370
    25
100
AcDbLine
 10
4.1532124827
 20
-7.5
 30
0.0
 11
-4.1532124827
 21
7.5
 31
0.0
  0
LINE
  5
386
330
2F0
100
AcDbEntity
  8
0
  6
Continuous
 62
     7
370
    25
100
AcDbLine
 10
17.3408760219
 20
0.0
 30
0.0
 11
-17.3408760219
 21
0.0
 31
0.0
  0
LINE
  5
387
330
2F0
100
AcDbEntity
  8
0
  6
Continuous
 62
     7
370
    25
100
AcDbLine
 10
-8.6704380109
 20
0.0
 30
0.0
 11
-4.1532124827
 21
7.5
 31
0.0
  0
LINE
  5
388
330
2F0
100
AcDbEntity
  8
0
  6
Continuous
 62
     7
370
    25
100
AcDbLine
 10
-15.5
 20
-7.5
 30
0.0
 11
15.5
 21
-7.5
 31
0.0
  0
LINE
  5
389
330
2F0
100
AcDbEntity
  8
0
  6
Continuous
 62
     7
370
    25
100
AcDbLine
 10
4.1532124827
 20
7.5
 30
0.0
 11
-4.1532124827
 21
-7.5
 31
0.0
  0
LINE
  5
38A
330
2F0
100
AcDbEntity
  8
0
  6
Continuous
 62
     7
370
    25
100
AcDbLine
 10
4.1532124827
 20
7.5
 30
0.0
 11
8.6704380109
 21
0.0
 31
0.0
  0
LINE
  5
38B
330
2F0
100
AcDbEntity
  8
0
  6
Continuous
 62
     7
370
    25
100
AcDbLine
 10
-8.6704380109
 20
0.0
 30
0.0
 11
-4.1532124827
 21
-7.5
 31
0.0
  0
LINE
  5
38C
330
2F0
100
AcDbEntity
  8
0
  6
Continuous
 62
     7
370
    25
100
AcDbLine
 10
-15.5
 20
7.5
 30
0.0
 11
15.5
 21
7.5
 31
0.0
  0
LINE
  5
38D
330
2F0
100
AcDbEntity
  8
0
  6
Continuous
 62
     7
370
    25
100
AcDbLine
 10
4.1532124827
 20
-7.5
 30
0.0
 11
8.6704380109
 21
0.0
 31
0.0
  0
LINE
  5
38E
330
2F0
100
AcDbEntity
  8
0
  6
Continuous
 62
     7
370
    25
100
AcDbLine
 10
-8.6704380109
 20
0.0
 30
0.0
 11
-11.3467875173
 21
-7.5
 31
0.0
  0
LINE
  5
38F
330
2F0
100
AcDbEntity
  8
0
  6
Continuous
 62
     7
370
    25
100
AcDbLine
 10
-4.1532124827
 20
7.5
 30
0.0
 11
0.0
 21
13.0
 31
0.0
  0
LINE
  5
390
330
2F0
100
AcDbEntity
  8
0
  6
Continuous
 62
     7
370
    25
100
AcDbLine
 10
4.1532124827
 20
7.5
 30
0.0
 11
0.0
 21
13.0
 31
0.0
  0
LINE
  5
391
330
2F0
100
AcDbEntity
  8
0
  6
Continuous
 62
     7
370
    25
100
AcDbLine
 10
-11.1292189394
 20
13.0
 30
0.0
 11
11.1292189394
 21
13.0
 31
0.0
  0
LINE
  5
392
330
2F0
100
AcDbEntity
  8
0
  6
Continuous
 62
     7
370
    25
100
AcDbLine
 10
-5.5646094697
 20
13.0
 30
0.0
 11
-4.1532124827
 21
7.5
 31
0.0
  0
LINE
  5
393
330
2F0
100
AcDbEntity
  8
0
  6
Continuous
 62
     7
370
    25
100
AcDbLine
 10
-4.1532124827
 20
-7.5
 30
0.0
 11
0.0
 21
-13.0
 31
0.0
  0
LINE
  5
394
330
2F0
100
AcDbEntity
  8
0
  6
Continuous
 62
     7
370
    25
100
AcDbLine
 10
-11.1292189394
 20
-13.0
 30
0.0
 11
11.1292189394
 21
-13.0
 31
0.0
  0
LINE
  5
395
330
2F0
100
AcDbEntity
  8
0
  6
Continuous
 62
     7
370
    25
100
AcDbLine
 10
-5.5646094697
 20
-13.0
 30
0.0
 11
-4.1532124827
 21
-7.5
 31
0.0
  0
LINE
  5
396
330
2F0
100
AcDbEntity
  8
0
  6
Continuous
 62
     7
370
    25
100
AcDbLine
 10
-5.5646094697
 20
-13.0
 30
0.0
 11
-11.3467875173
 21
-7.5
 31
0.0
  0
LINE
  5
397
330
2F0
100
AcDbEntity
  8
0
  6
Continuous
 62
     7
370
    25
100
AcDbLine
 10
-8.6704380109
 20
0.0
 30
0.0
 11
-11.3467875173
 21
7.5
 31
0.0
  0
LINE
  5
398
330
2F0
100
AcDbEntity
  8
0
  6
Continuous
 62
     7
370
    25
100
AcDbLine
 10
-5.5646094697
 20
13.0
 30
0.0
 11
-11.3467875173
 21
7.5
 31
0.0
  0
LINE
  5
399
330
2F0
100
AcDbEntity
  8
0
  6
Continuous
 62
     7
370
    25
100
AcDbLine
 10
4.1532124827
 20
-7.5
 30
0.0
 11
0.0
 21
-13.0
 31
0.0
  0
LINE
  5
39A
330
2F0
100
AcDbEntity
  8
0
  6
Continuous
 62
     7
370
    25
100
AcDbLine
 10
4.1532124827
 20
7.5
 30
0.0
 11
5.5646094697
 21
13.0
 31
0.0
  0
LINE
  5
39B
330
2F0
100
AcDbEntity
  8
0
  6
Continuous
 62
     7
370
    25
100
AcDbLine
 10
4.1532124827
 20
-7.5
 30
0.0
 11
5.5646094697
 21
-13.0
 31
0.0
  0
LINE
  5
39C
330
2F0
100
AcDbEntity
  8
0
  6
Continuous
 62
     7
370
    25
100
AcDbLine
 10
11.3467875173
 20
7.5
 30
0.0
 11
8.6704380109
 21
0.0
 31
0.0
  0
LINE
  5
39D
330
2F0
100
AcDbEntity
  8
0
  6
Continuous
 62
     7
370
    25
100
AcDbLine
 10
11.3467875173
 20
-7.5
 30
0.0
 11
5.5646094697
 21
-13.0
 31
0.0
  0
LINE
  5
39E
330
2F0
100
AcDbEntity
  8
0
  6
Continuous
 62
     7
370
    25
100
AcDbLine
 10
11.3467875173
 20
-7.5
 30
0.0
 11
8.6704380109
 21
0.0
 31
0.0
  0
LINE
  5
39F
330
2F0
100
AcDbEntity
  8
0
  6
Continuous
 62
     7
370
    25
100
AcDbLine
 10
11.3467875173
 20
7.5
 30
0.0
 11
5.5646094697
 21
13.0
 31
0.0
  0
LINE
  5
3A0
330
2F0
100
AcDbEntity
  8
0
  6
Continuous
 62
     7
370
    25
100
AcDbLine
 10
-15.0176391588
 20
0.0
 30
0.0
 11
-11.3467875173
 21
-7.5
 31
0.0
  0
LINE
  5
3A1
330
2F0
100
AcDbEntity
  8
0
  6
Continuous
 62
     7
370
    25
100
AcDbLine
 10
-15.0176391588
 20
0.0
 30
0.0
 11
-11.3467875173
 21
7.5
 31
0.0
  0
LINE
  5
3A2
330
2F0
100
AcDbEntity
  8
0
  6
Continuous
 62
     7
370
    25
100
AcDbLine
 10
11.3467875173
 20
7.5
 30
0.0
 11
15.0176391588
 21
0.0
 31
0.0
  0
LINE
  5
3A3
330
2F0
100
AcDbEntity
  8
0
  6
Continuous
 62
     7
370
    25
100
AcDbLine
 10
11.3467875173
 20
-7.5
 30
0.0
 11
15.0176391588
 21
0.0
 31
0.0
  0
LINE
  5
3A4
330
2F0
100
AcDbEntity
  8
0
  6
Continuous
 62
     7
370
    25
100
AcDbLine
 10
-9.6381863258
 20
-13.0
 30
0.0
 11
-11.3467875173
 21
-7.5
 31
0.0
  0
LINE
  5
3A5
330
2F0
100
AcDbEntity
  8
0
  6
Continuous
 62
     7
370
    25
100
AcDbLine
 10
-15.0176391588
 20
0.0
 30
0.0
 11
-15.5
 21
-7.5
 31
0.0
  0
LINE
  5
3A6
330
2F0
100
AcDbEntity
  8
0
  6
Continuous
 62
     7
370
    25
100
AcDbLine
 10
-9.6381863258
 20
13.0
 30
0.0
 11
-15.5
 21
7.5
 31
0.0
  0
LINE
  5
3A7
330
2F0
100
AcDbEntity
  8
0
  6
Continuous
 62
     7
370
    25
100
AcDbLine
 10
-9.6381863258
 20
13.0
 30
0.0
 11
-11.3467875173
 21
7.5
 31
0.0
  0
LINE
  5
3A8
330
2F0
100
AcDbEntity
  8
0
  6
Continuous
 62
     7
370
    25
100
AcDbLine
 10
-9.6381863258
 20
-13.0
 30
0.0
 11
-15.5
 21
-7.5
 31
0.0
  0
LINE
  5
3A9
330
2F0
100
AcDbEntity
  8
0
  6
Continuous
 62
     7
370
    25
100
AcDbLine
 10
-15.0176391588
 20
0.0
 30
0.0
 11
-15.5
 21
7.5
 31
0.0
  0
LINE
  5
3AA
330
2F0
100
AcDbEntity
  8
0
  6
Continuous
 62
     7
370
    25
100
AcDbLine
 10
15.5
 20
7.5
 30
0.0
 11
15.0176391588
 21
0.0
 31
0.0
  0
LINE
  5
3AB
330
2F0
100
AcDbEntity
  8
0
  6
Continuous
 62
     7
370
    25
100
AcDbLine
 10
11.3467875173
 20
-7.5
 30
0.0
 11
9.6381863258
 21
-13.0
 31
0.0
  0
LINE
  5
3AC
330
2F0
100
AcDbEntity
  8
0
  6
Continuous
 62
     7
370
    25
100
AcDbLine
 10
15.5
 20
-7.5
 30
0.0
 11
9.6381863258
 21
-13.0
 31
0.0
  0
LINE
  5
3AD
330
2F0
100
AcDbEntity
  8
0
  6
Continuous
 62
     7
370
    25
100
AcDbLine
 10
15.5
 20
-7.5
 30
0.0
 11
15.0176391588
 21
0.0
 31
0.0
  0
LINE
  5
3AE
330
2F0
100
AcDbEntity
  8
0
  6
Continuous
 62
     7
370
    25
100
AcDbLine
 10
11.3467875173
 20
7.5
 30
0.0
 11
9.6381863258
 21
13.0
 31
0.0
  0
LINE
  5
3AF
330
2F0
100
AcDbEntity
  8
0
  6
Continuous
 62
     7
370
    25
100
AcDbLine
 10
15.5
 20
7.5
 30
0.0
 11
9.6381863258
 21
13.0
 31
0.0
  0
LINE
  5
3B0
330
2F0
100
AcDbEntity
  8
0
  6
Continuous
 62
     7
370
    25
100
AcDbLine
 10
0.0
 20
-13.5
 30
0.0
 11
0.0
 21
-13.0
 31
0.0
  0
LINE
  5
3B1
330
2F0
100
AcDbEntity
  8
0
  6
Continuous
 62
     7
370
    25
100
AcDbLine
 10
-4.7696652597
 20
-13.5
 30
0.0
 11
-5.5646094697
 21
-13.0
 31
0.0
  0
LINE
  5
3B2
330
2F0
100
AcDbEntity
  8
0
  6
Continuous
 62
     7
370
    25
100
AcDbLine
 10
0.0
 20
16.5
 30
0.0
 11
0.0
 21
13.0
 31
0.0
  0
LINE
  5
3B3
330
2F0
100
AcDbEntity
  8
0
  6
Continuous
 62
     7
370
    25
100
AcDbLine
 10
0.0
 20
16.5
 30
0.0
 11
-5.5646094697
 21
13.0
 31
0.0
  0
LINE
  5
3B4
330
2F0
100
AcDbEntity
  8
0
  6
Continuous
 62
     7
370
    25
100
AcDbLine
 10
0.0
 20
16.5
 30
0.0
 11
5.5646094697
 21
13.0
 31
0.0
  0
LINE
  5
3B5
330
2F0
100
AcDbEntity
  8
0
  6
Continuous
 62
     7
370
    25
100
AcDbLine
 10
4.7696652597
 20
-13.5
 30
0.0
 11
5.5646094697
 21
-13.0
 31
0.0
  0
LINE
  5
3B6
330
2F0
100
AcDbEntity
  8
0
  6
Continuous
 62
     7
370
    25
100
AcDbLine
 10
-8.261302565
 20
-13.5
 30
0.0
 11
-9.6381863258
 21
-13.0
 31
0.0
  0
LINE
  5
3B7
330
2F0
100
AcDbEntity
  8
0
  6
Continuous
 62
     7
370
    25
100
AcDbLine
 10
0.0
 20
16.5
 30
0.0
 11
-9.6381863258
 21
13.0
 31
0.0
  0
LINE
  5
3B8
330
2F0
100
AcDbEntity
  8
0
  6
Continuous
 62
     7
370
    25
100
AcDbLine
 10
0.0
 20
16.5
 30
0.0
 11
9.6381863258
 21
13.0
 31
0.0
  0
LINE
  5
3B9
330
2F0
100
AcDbEntity
  8
0
  6
Continuous
 62
     7
370
    25
100
AcDbLine
 10
8.261302565
 20
-13.5
 30
0.0
 11
9.6381863258
 21
-13.0
 31
0.0
  0
LINE
  5
3BA
330
2F0
100
AcDbEntity
  8
0
  6
Continuous
 62
     7
370
    25
100
AcDbLine
 10
-17.3408760219
 20
0.0
 30
0.0
 11
-15.5
 21
7.5
 31
0.0
  0
LINE
  5
3BB
330
2F0
100
AcDbEntity
  8
0
  6
Continuous
 62
     7
370
    25
100
AcDbLine
 10
-17.3408760219
 20
0.0
 30
0.0
 11
-15.5
 21
-7.5
 31
0.0
  0
LINE
  5
3BC
330
2F0
100
AcDbEntity
  8
0
  6
Continuous
 62
     7
370
    25
100
AcDbLine
 10
15.5
 20
7.5
 30
0.0
 11
17.3408760219
 21
0.0
 31
0.0
  0
LINE
  5
3BD
330
2F0
100
AcDbEntity
  8
0
  6
Continuous
 62
     7
370
    25
100
AcDbLine
 10
15.5
 20
-7.5
 30
0.0
 11
17.3408760219
 21
0.0
 31
0.0
  0
LINE
  5
3BE
330
2F0
100
AcDbEntity
  8
0
  6
Continuous
 62
     7
370
    25
100
AcDbLine
 10
-11.1292189394
 20
-13.0
 30
0.0
 11
-15.5
 21
-7.5
 31
0.0
  0
LINE
  5
3BF
330
2F0
100
AcDbEntity
  8
0
  6
Continuous
 62
     7
370
    25
100
AcDbLine
 10
0.0
 20
16.5
 30
0.0
 11
-11.1292189394
 21
13.0
 31
0.0
  0
LINE
  5
3C0
330
2F0
100
AcDbEntity
  8
0
  6
Continuous
 62
     7
370
    25
100
AcDbLine
 10
-11.1292189394
 20
13.0
 30
0.0
 11
-15.5
 21
7.5
 31
0.0
  0
LINE
  5
3C1
330
2F0
100
AcDbEntity
  8
0
  6
Continuous
 62
     7
370
    25
100
AcDbLine
 10
-9.5393305195
 20
-13.5
 30
0.0
 11
-11.1292189394
 21
-13.0
 31
0.0
  0
LINE
  5
3C2
330
2F0
100
AcDbEntity
  8
0
  6
Continuous
 62
     7
370
    25
100
AcDbLine
 10
15.5
 20
-7.5
 30
0.0
 11
11.1292189394
 21
-13.0
 31
0.0
  0
LINE
  5
3C3
330
2F0
100
AcDbEntity
  8
0
  6
Continuous
 62
     7
370
    25
100
AcDbLine
 10
15.5
 20
7.5
 30
0.0
 11
11.1292189394
 21
13.0
 31
0.0
  0
LINE
  5
3C4
330
2F0
100
AcDbEntity
  8
0
  6
Continuous
 62
     7
370
    25
100
AcDbLine
 10
0.0
 20
16.5
 30
0.0
 11
11.1292189394
 21
13.0
 31
0.0
  0
LINE
  5
3C5
330
2F0
100
AcDbEntity
  8
0
  6
Continuous
 62
     7
370
    25
100
AcDbLine
 10
9.5393305195
 20
-13.5
 30
0.0
 11
11.1292189394
 21
-13.0
 31
0.0
  0
LINE
  5
3C6
330
2F0
100
AcDbEntity
  8
0
  6
Continuous
 62
     8
370
    25
100
AcDbLine
 10
10.5
 20
-27.86037961
 30
0.0
 11
-10.5
 21
-27.86037961
 31
0.0
  0
LINE
  5
3C7
330
2F0
100
AcDbEntity
  8
0
  6
Continuous
 62
     8
370
    25
100
AcDbLine
 10
-10.158113883
 20
-27.386037961
 30
0.0
 11
10.158113883
 21
-27.386037961
 31
0.0
  0
LINE
  5
3C8
330
2F0
100
AcDbEntity
  8
0
  6
Continuous
 62
     8
370
    25
100
AcDbLine
 10
10.3582507531
 20
-15.5431559942
 30
0.0
 11
-10.3582507531
 21
-15.5431559942
 31
0.0
  0
LINE
  5
3C9
330
2F0
100
AcDbEntity
  8
0
  6
Continuous
 62
     8
370
    25
100
AcDbLine
 10
-10.5
 20
-15.3518268283
 30
0.0
 11
10.5
 21
-15.3518268283
 31
0.0
  0
LINE
  5
3CA
330
2F0
100
AcDbEntity
  8
0
  6
Continuous
 62
     8
370
    25
100
AcDbLine
 10
7.2154215926
 20
-16.5
 30
0.0
 11
-7.2154215926
 21
-16.5
 31
0.0
  0
LINE
  5
3CB
330
2F0
100
AcDbEntity
  8
0
  6
Continuous
 62
     8
370
    25
100
AcDbLine
 10
9.1367544468
 20
-27.0455848156
 30
0.0
 11
-9.1367544468
 21
-27.0455848156
 31
0.0
  0
LINE
  5
3CC
330
2F0
100
AcDbEntity
  8
0
  6
Continuous
 62
     8
370
    25
100
AcDbLine
 10
-9.0
 20
-26.855848156
 30
0.0
 11
9.0
 21
-26.855848156
 31
0.0
  0
LINE
  5
3CD
330
2F0
100
AcDbEntity
  8
0
  6
Continuous
 62
     8
370
    25
100
AcDbLine
 10
9.0
 20
-25.6865030172
 30
0.0
 11
-9.0
 21
-25.6865030172
 31
0.0
  0
LINE
  5
3CE
330
2F0
100
AcDbEntity
  8
0
  6
Continuous
 62
     8
370
    25
100
AcDbLine
 10
-8.8139512947
 20
-25.4869902072
 30
0.0
 11
8.8139512947
 21
-25.4869902072
 31
0.0
  0
LINE
  5
3CF
330
2F0
100
AcDbEntity
  8
0
  6
Continuous
 62
     8
370
    25
100
AcDbLine
 10
8.2294069587
 20
-25.4461148853
 30
0.0
 11
-8.2294069587
 21
-25.4461148853
 31
0.0
  0
ARC
  5
3D0
330
2F0
100
AcDbEntity
  8
0
  6
Continuous
 62
     7
370
    25
100
AcDbCircle
 10
-10.0
 20
-27.86037961
 30
0.0
 40
0.5000000000000115
100
AcDbArc
 50
108.4349488229
 51
180.0
  0
ARC
  5
3D1
330
2F0
100
AcDbEntity
  8
0
  6
Continuous
 62
     7
370
    25
100
AcDbCircle
 10
10.0
 20
-27.86037961
 30
0.0
 40
0.5000000000000014
100
AcDbArc
 50
0.0
 51
71.5650511771
  0
ARC
  5
3D2
330
2F0
100
AcDbEntity
  8
0
  6
Continuous
 62
     7
370
    25
100
AcDbCircle
 10
-10.3
 20
-15.3518268283
 30
0.0
 40
0.2000000000000009
100
AcDbArc
 50
180.0
 51
253.0669679394
  0
ARC
  5
3D3
330
2F0
100
AcDbEntity
  8
0
  6
Continuous
 62
     7
370
    25
100
AcDbCircle
 10
10.3
 20
-15.3518268283
 30
0.0
 40
0.2000000000000025
100
AcDbArc
 50
286.9330320606
 51
0.0
  0
ARC
  5
3D4
330
2F0
100
AcDbEntity
  8
0
  6
Continuous
 62
     7
370
    25
100
AcDbCircle
 10
9.2
 20
-26.855848156
 30
0.0
 40
0.2000000000000082
100
AcDbArc
 50
180.0
 51
251.5650511771
  0
ARC
  5
3D5
330
2F0
100
AcDbEntity
  8
0
  6
Continuous
 62
     7
370
    25
100
AcDbCircle
 10
-9.2
 20
-26.855848156
 30
0.0
 40
0.200000000000004
100
AcDbArc
 50
288.4349488229
 51
0.0
  0
ARC
  5
3D6
330
2F0
100
AcDbEntity
  8
0
  6
Continuous
 62
     7
370
    25
100
AcDbCircle
 10
-8.8
 20
-25.6865030172
 30
0.0
 40
0.2000000000000082
100
AcDbArc
 50
94.0
 51
180.0
  0
ARC
  5
3D7
330
2F0
100
AcDbEntity
  8
0
  6
Continuous
 62
     7
370
    25
100
AcDbCircle
 10
8.8
 20
-25.6865030172
 30
0.0
 40
0.2000000000000046
100
AcDbArc
 50
0.0
 51
86.0
  0
ARC
  5
3D8
330
2F0
100
AcDbEntity
  8
0
  6
Continuous
 62
     7
370
    25
100
AcDbCircle
 10
8.548742888
 20
-20.8793983369
 30
0.0
 40
4.577868004826208
100
AcDbArc
 50
106.9330320606
 51
266.0
  0
ARC
  5
3D9
330
2F0
100
AcDbEntity
  8
0
  6
Continuous
 62
     7
370
    25
100
AcDbCircle
 10
-8.548742888
 20
-20.8793983369
 30
0.0
 40
4.57786800482621
100
AcDbArc
 50
274.0
 51
73.0669679394
  0
VIEWPORT
  5
886
330
2F0
100
AcDbEntity
  8
0
100
AcDbViewport
 10
0.0
 20
0.0
 30
0.0
 40
205.6
 41
156.0
 68
     1
 69
     1
 12
0.0
 22
0.0
 13
0.0
 23
0.0
 14
10.0
 24
10.0
 15
10.0
 25
10.0
 16
0.0
 26
0.0
 36
1.0
 17
0.0
 27
0.0
 37
0.0
 42
50.0
 43
0.0
 44
0.0
 45
35.3753870846
 50
0.0
 51
0.0
 72
   100
 90
   557152
  1

281
     0
 71
     1
 74
     0
110
0.0
120
0.0
130
0.0
111
1.0
121
0.0
131
0.0
112
0.0
122
1.0
132
0.0
 79
     0
146
0.0
  0
ENDBLK
  5
2F3
330
2F0
100
AcDbEntity
  8
0
100
AcDbBlockEnd
  0
BLOCK
  5
3DC
330
3DA
100
AcDbEntity
  8
0
100
AcDbBlockBegin
  2
*Paper_Space2
 70
     0
 10
0.0
 20
0.0
 30
0.0
  3
*Paper_Space2
  1

  0
LINE
  5
45A
330
3DA
100
AcDbEntity
  8
0
  6
Continuous
 62
     7
370
    25
100
AcDbLine
 10
10.5
 20
-15.3518268283
 30
0.0
 11
10.5
 21
-13.5
 31
0.0
  0
LINE
  5
45B
330
3DA
100
AcDbEntity
  8
0
  6
Continuous
 62
     7
370
    25
100
AcDbLine
 10
-10.5
 20
-13.5
 30
0.0
 11
-10.5
 21
-15.3518268283
 31
0.0
  0
LINE
  5
45C
330
3DA
100
AcDbEntity
  8
0
  6
Continuous
 62
     7
370
    25
100
AcDbLine
 10
10.5
 20
-30.0
 30
0.0
 11
10.5
 21
-27.86037961
 31
0.0
  0
LINE
  5
45D
330
3DA
100
AcDbEntity
  8
0
  6
Continuous
 62
     7
370
    25
100
AcDbLine
 10
-10.5
 20
-27.86037961
 30
0.0
 11
-10.5
 21
-30.0
 31
0.0
  0
LINE
  5
45E
330
3DA
100
AcDbEntity
  8
0
  6
Continuous
 62
     7
370
    25
100
AcDbLine
 10
-10.3582507531
 20
-15.5431559942
 30
0.0
 11
-7.2154215926
 21
-16.5
 31
0.0
  0
LINE
  5
45F
330
3DA
100
AcDbEntity
  8
0
  6
Continuous
 62
     7
370
    25
100
AcDbLine
 10
7.2154215926
 20
-16.5
 30
0.0
 11
10.3582507531
 21
-15.5431559942
 31
0.0
  0
LINE
  5
460
330
3DA
100
AcDbEntity
  8
0
  6
Continuous
 62
     7
370
    25
100
AcDbLine
 10
10.158113883
 20
-27.386037961
 30
0.0
 11
9.1367544468
 21
-27.0455848156
 31
0.0
  0
LINE
  5
461
330
3DA
100
AcDbEntity
  8
0
  6
Continuous
 62
     7
370
    25
100
AcDbLine
 10
-9.1367544468
 20
-27.0455848156
 30
0.0
 11
-10.158113883
 21
-27.386037961
 31
0.0
  0
LINE
  5
462
330
3DA
100
AcDbEntity
  8
0
  6
Continuous
 62
     7
370
    25
100
AcDbLine
 10
9.0
 20
-26.855848156
 30
0.0
 11
9.0
 21
-25.6865030172
 31
0.0
  0
LINE
  5
463
330
3DA
100
AcDbEntity
  8
0
  6
Continuous
 62
     7
370
    25
100
AcDbLine
 10
-9.0
 20
-25.6865030172
 30
0.0
 11
-9.0
 21
-26.855848156
 31
0.0
  0
LINE
  5
464
330
3DA
100
AcDbEntity
  8
0
  6
Continuous
 62
     7
370
    25
100
AcDbLine
 10
8.8139512947
 20
-25.4869902072
 30
0.0
 11
8.2294069587
 21
-25.4461148853
 31
0.0
  0
LINE
  5
465
330
3DA
100
AcDbEntity
  8
0
  6
Continuous
 62
     7
370
    25
100
AcDbLine
 10
-8.2294069587
 20
-25.4461148853
 30
0.0
 11
-8.8139512947
 21
-25.4869902072
 31
0.0
  0
LINE
  5
466
330
3DA
100
AcDbEntity
  8
0
  6
Continuous
 62
     7
370
    25
100
AcDbLine
 10
10.5
 20
-13.5
 30
0.0
 11
-10.5
 21
-13.5
 31
0.0
  0
LINE
  5
467
330
3DA
100
AcDbEntity
  8
0
  6
Continuous
 62
     7
370
    25
100
AcDbLine
 10
10.5
 20
-30.0
 30
0.0
 11
-10.5
 21
-30.0
 31
0.0
  0
LINE
  5
468
330
3DA
100
AcDbEntity
  8
0
  6
Continuous
 62
     7
370
    25
100
AcDbLine
 10
17.3408760219
 20
0.0
 30
0.0
 11
-17.3408760219
 21
0.0
 31
0.0
  0
LINE
  5
469
330
3DA
100
AcDbEntity
  8
0
  6
Continuous
 62
     7
370
    25
100
AcDbLine
 10
-4.1532124827
 20
-7.5
 30
0.0
 11
4.1532124827
 21
7.5
 31
0.0
  0
LINE
  5
46A
330
3DA
100
AcDbEntity
  8
0
  6
Continuous
 62
     7
370
    25
100
AcDbLine
 10
-8.6704380109
 20
0.0
 30
0.0
 11
-4.1532124827
 21
-7.5
 31
0.0
  0
LINE
  5
46B
330
3DA
100
AcDbEntity
  8
0
  6
Continuous
 62
     7
370
    25
100
AcDbLine
 10
-4.1532124827
 20
7.5
 30
0.0
 11
4.1532124827
 21
-7.5
 31
0.0
  0
LINE
  5
46C
330
3DA
100
AcDbEntity
  8
0
  6
Continuous
 62
     7
370
    25
100
AcDbLine
 10
-15.5
 20
7.5
 30
0.0
 11
15.5
 21
7.5
 31
0.0
  0
LINE
  5
46D
330
3DA
100
AcDbEntity
  8
0
  6
Continuous
 62
     7
370
    25
100
AcDbLine
 10
-15.5
 20
-7.5
 30
0.0
 11
15.5
 21
-7.5
 31
0.0
  0
LINE
  5
46E
330
3DA
100
AcDbEntity
  8
0
  6
Continuous
 62
     7
370
    25
100
AcDbLine
 10
8.6704380109
 20
0.0
 30
0.0
 11
4.1532124827
 21
7.5
 31
0.0
  0
LINE
  5
46F
330
3DA
100
AcDbEntity
  8
0
  6
Continuous
 62
     7
370
    25
100
AcDbLine
 10
8.6704380109
 20
0.0
 30
0.0
 11
4.1532124827
 21
-7.5
 31
0.0
  0
LINE
  5
470
330
3DA
100
AcDbEntity
  8
0
  6
Continuous
 62
     7
370
    25
100
AcDbLine
 10
-8.6704380109
 20
0.0
 30
0.0
 11
-4.1532124827
 21
7.5
 31
0.0
  0
LINE
  5
471
330
3DA
100
AcDbEntity
  8
0
  6
Continuous
 62
     7
370
    25
100
AcDbLine
 10
-5.5646094697
 20
-13.0
 30
0.0
 11
-11.3467875173
 21
-7.5
 31
0.0
  0
LINE
  5
472
330
3DA
100
AcDbEntity
  8
0
  6
Continuous
 62
     7
370
    25
100
AcDbLine
 10
-5.5646094697
 20
-13.0
 30
0.0
 11
-4.1532124827
 21
-7.5
 31
0.0
  0
LINE
  5
473
330
3DA
100
AcDbEntity
  8
0
  6
Continuous
 62
     7
370
    25
100
AcDbLine
 10
-8.6704380109
 20
0.0
 30
0.0
 11
-11.3467875173
 21
7.5
 31
0.0
  0
LINE
  5
474
330
3DA
100
AcDbEntity
  8
0
  6
Continuous
 62
     7
370
    25
100
AcDbLine
 10
0.0
 20
-13.0
 30
0.0
 11
-4.1532124827
 21
-7.5
 31
0.0
  0
LINE
  5
475
330
3DA
100
AcDbEntity
  8
0
  6
Continuous
 62
     7
370
    25
100
AcDbLine
 10
-11.1292189394
 20
-13.0
 30
0.0
 11
11.1292189394
 21
-13.0
 31
0.0
  0
LINE
  5
476
330
3DA
100
AcDbEntity
  8
0
  6
Continuous
 62
     7
370
    25
100
AcDbLine
 10
-11.1292189394
 20
13.0
 30
0.0
 11
11.1292189394
 21
13.0
 31
0.0
  0
LINE
  5
477
330
3DA
100
AcDbEntity
  8
0
  6
Continuous
 62
     7
370
    25
100
AcDbLine
 10
0.0
 20
13.0
 30
0.0
 11
-4.1532124827
 21
7.5
 31
0.0
  0
LINE
  5
478
330
3DA
100
AcDbEntity
  8
0
  6
Continuous
 62
     7
370
    25
100
AcDbLine
 10
-5.5646094697
 20
13.0
 30
0.0
 11
-4.1532124827
 21
7.5
 31
0.0
  0
LINE
  5
479
330
3DA
100
AcDbEntity
  8
0
  6
Continuous
 62
     7
370
    25
100
AcDbLine
 10
0.0
 20
-13.0
 30
0.0
 11
4.1532124827
 21
-7.5
 31
0.0
  0
LINE
  5
47A
330
3DA
100
AcDbEntity
  8
0
  6
Continuous
 62
     7
370
    25
100
AcDbLine
 10
0.0
 20
13.0
 30
0.0
 11
4.1532124827
 21
7.5
 31
0.0
  0
LINE
  5
47B
330
3DA
100
AcDbEntity
  8
0
  6
Continuous
 62
     7
370
    25
100
AcDbLine
 10
-5.5646094697
 20
13.0
 30
0.0
 11
-11.3467875173
 21
7.5
 31
0.0
  0
LINE
  5
47C
330
3DA
100
AcDbEntity
  8
0
  6
Continuous
 62
     7
370
    25
100
AcDbLine
 10
-8.6704380109
 20
0.0
 30
0.0
 11
-11.3467875173
 21
-7.5
 31
0.0
  0
LINE
  5
47D
330
3DA
100
AcDbEntity
  8
0
  6
Continuous
 62
     7
370
    25
100
AcDbLine
 10
5.5646094697
 20
13.0
 30
0.0
 11
4.1532124827
 21
7.5
 31
0.0
  0
LINE
  5
47E
330
3DA
100
AcDbEntity
  8
0
  6
Continuous
 62
     7
370
    25
100
AcDbLine
 10
5.5646094697
 20
13.0
 30
0.0
 11
11.3467875173
 21
7.5
 31
0.0
  0
LINE
  5
47F
330
3DA
100
AcDbEntity
  8
0
  6
Continuous
 62
     7
370
    25
100
AcDbLine
 10
5.5646094697
 20
-13.0
 30
0.0
 11
4.1532124827
 21
-7.5
 31
0.0
  0
LINE
  5
480
330
3DA
100
AcDbEntity
  8
0
  6
Continuous
 62
     7
370
    25
100
AcDbLine
 10
5.5646094697
 20
-13.0
 30
0.0
 11
11.3467875173
 21
-7.5
 31
0.0
  0
LINE
  5
481
330
3DA
100
AcDbEntity
  8
0
  6
Continuous
 62
     7
370
    25
100
AcDbLine
 10
8.6704380109
 20
0.0
 30
0.0
 11
11.3467875173
 21
-7.5
 31
0.0
  0
LINE
  5
482
330
3DA
100
AcDbEntity
  8
0
  6
Continuous
 62
     7
370
    25
100
AcDbLine
 10
8.6704380109
 20
0.0
 30
0.0
 11
11.3467875173
 21
7.5
 31
0.0
  0
LINE
  5
483
330
3DA
100
AcDbEntity
  8
0
  6
Continuous
 62
     7
370
    25
100
AcDbLine
 10
-15.0176391588
 20
0.0
 30
0.0
 11
-11.3467875173
 21
7.5
 31
0.0
  0
LINE
  5
484
330
3DA
100
AcDbEntity
  8
0
  6
Continuous
 62
     7
370
    25
100
AcDbLine
 10
-15.0176391588
 20
0.0
 30
0.0
 11
-11.3467875173
 21
-7.5
 31
0.0
  0
LINE
  5
485
330
3DA
100
AcDbEntity
  8
0
  6
Continuous
 62
     7
370
    25
100
AcDbLine
 10
15.0176391588
 20
0.0
 30
0.0
 11
11.3467875173
 21
7.5
 31
0.0
  0
LINE
  5
486
330
3DA
100
AcDbEntity
  8
0
  6
Continuous
 62
     7
370
    25
100
AcDbLine
 10
15.0176391588
 20
0.0
 30
0.0
 11
11.3467875173
 21
-7.5
 31
0.0
  0
LINE
  5
487
330
3DA
100
AcDbEntity
  8
0
  6
Continuous
 62
     7
370
    25
100
AcDbLine
 10
-9.6381863258
 20
13.0
 30
0.0
 11
-11.3467875173
 21
7.5
 31
0.0
  0
LINE
  5
488
330
3DA
100
AcDbEntity
  8
0
  6
Continuous
 62
     7
370
    25
100
AcDbLine
 10
-9.6381863258
 20
-13.0
 30
0.0
 11
-11.3467875173
 21
-7.5
 31
0.0
  0
LINE
  5
489
330
3DA
100
AcDbEntity
  8
0
  6
Continuous
 62
     7
370
    25
100
AcDbLine
 10
-9.6381863258
 20
-13.0
 30
0.0
 11
-15.5
 21
-7.5
 31
0.0
  0
LINE
  5
48A
330
3DA
100
AcDbEntity
  8
0
  6
Continuous
 62
     7
370
    25
100
AcDbLine
 10
-15.0176391588
 20
0.0
 30
0.0
 11
-15.5
 21
7.5
 31
0.0
  0
LINE
  5
48B
330
3DA
100
AcDbEntity
  8
0
  6
Continuous
 62
     7
370
    25
100
AcDbLine
 10
-9.6381863258
 20
13.0
 30
0.0
 11
-15.5
 21
7.5
 31
0.0
  0
LINE
  5
48C
330
3DA
100
AcDbEntity
  8
0
  6
Continuous
 62
     7
370
    25
100
AcDbLine
 10
-15.0176391588
 20
0.0
 30
0.0
 11
-15.5
 21
-7.5
 31
0.0
  0
LINE
  5
48D
330
3DA
100
AcDbEntity
  8
0
  6
Continuous
 62
     7
370
    25
100
AcDbLine
 10
9.6381863258
 20
-13.0
 30
0.0
 11
11.3467875173
 21
-7.5
 31
0.0
  0
LINE
  5
48E
330
3DA
100
AcDbEntity
  8
0
  6
Continuous
 62
     7
370
    25
100
AcDbLine
 10
9.6381863258
 20
-13.0
 30
0.0
 11
15.5
 21
-7.5
 31
0.0
  0
LINE
  5
48F
330
3DA
100
AcDbEntity
  8
0
  6
Continuous
 62
     7
370
    25
100
AcDbLine
 10
15.0176391588
 20
0.0
 30
0.0
 11
15.5
 21
-7.5
 31
0.0
  0
LINE
  5
490
330
3DA
100
AcDbEntity
  8
0
  6
Continuous
 62
     7
370
    25
100
AcDbLine
 10
9.6381863258
 20
13.0
 30
0.0
 11
11.3467875173
 21
7.5
 31
0.0
  0
LINE
  5
491
330
3DA
100
AcDbEntity
  8
0
  6
Continuous
 62
     7
370
    25
100
AcDbLine
 10
15.0176391588
 20
0.0
 30
0.0
 11
15.5
 21
7.5
 31
0.0
  0
LINE
  5
492
330
3DA
100
AcDbEntity
  8
0
  6
Continuous
 62
     7
370
    25
100
AcDbLine
 10
9.6381863258
 20
13.0
 30
0.0
 11
15.5
 21
7.5
 31
0.0
  0
LINE
  5
493
330
3DA
100
AcDbEntity
  8
0
  6
Continuous
 62
     7
370
    25
100
AcDbLine
 10
0.0
 20
16.5
 30
0.0
 11
5.5646094697
 21
13.0
 31
0.0
  0
LINE
  5
494
330
3DA
100
AcDbEntity
  8
0
  6
Continuous
 62
     7
370
    25
100
AcDbLine
 10
0.0
 20
16.5
 30
0.0
 11
0.0
 21
13.0
 31
0.0
  0
LINE
  5
495
330
3DA
100
AcDbEntity
  8
0
  6
Continuous
 62
     7
370
    25
100
AcDbLine
 10
0.0
 20
-13.5
 30
0.0
 11
0.0
 21
-13.0
 31
0.0
  0
LINE
  5
496
330
3DA
100
AcDbEntity
  8
0
  6
Continuous
 62
     7
370
    25
100
AcDbLine
 10
-4.7696652597
 20
-13.5
 30
0.0
 11
-5.5646094697
 21
-13.0
 31
0.0
  0
LINE
  5
497
330
3DA
100
AcDbEntity
  8
0
  6
Continuous
 62
     7
370
    25
100
AcDbLine
 10
4.7696652597
 20
-13.5
 30
0.0
 11
5.5646094697
 21
-13.0
 31
0.0
  0
LINE
  5
498
330
3DA
100
AcDbEntity
  8
0
  6
Continuous
 62
     7
370
    25
100
AcDbLine
 10
0.0
 20
16.5
 30
0.0
 11
-5.5646094697
 21
13.0
 31
0.0
  0
LINE
  5
499
330
3DA
100
AcDbEntity
  8
0
  6
Continuous
 62
     7
370
    25
100
AcDbLine
 10
0.0
 20
16.5
 30
0.0
 11
-9.6381863258
 21
13.0
 31
0.0
  0
LINE
  5
49A
330
3DA
100
AcDbEntity
  8
0
  6
Continuous
 62
     7
370
    25
100
AcDbLine
 10
-8.261302565
 20
-13.5
 30
0.0
 11
-9.6381863258
 21
-13.0
 31
0.0
  0
LINE
  5
49B
330
3DA
100
AcDbEntity
  8
0
  6
Continuous
 62
     7
370
    25
100
AcDbLine
 10
0.0
 20
16.5
 30
0.0
 11
9.6381863258
 21
13.0
 31
0.0
  0
LINE
  5
49C
330
3DA
100
AcDbEntity
  8
0
  6
Continuous
 62
     7
370
    25
100
AcDbLine
 10
8.261302565
 20
-13.5
 30
0.0
 11
9.6381863258
 21
-13.0
 31
0.0
  0
LINE
  5
49D
330
3DA
100
AcDbEntity
  8
0
  6
Continuous
 62
     7
370
    25
100
AcDbLine
 10
-17.3408760219
 20
0.0
 30
0.0
 11
-15.5
 21
-7.5
 31
0.0
  0
LINE
  5
49E
330
3DA
100
AcDbEntity
  8
0
  6
Continuous
 62
     7
370
    25
100
AcDbLine
 10
-17.3408760219
 20
0.0
 30
0.0
 11
-15.5
 21
7.5
 31
0.0
  0
LINE
  5
49F
330
3DA
100
AcDbEntity
  8
0
  6
Continuous
 62
     7
370
    25
100
AcDbLine
 10
15.5
 20
-7.5
 30
0.0
 11
17.3408760219
 21
0.0
 31
0.0
  0
LINE
  5
4A0
330
3DA
100
AcDbEntity
  8
0
  6
Continuous
 62
     7
370
    25
100
AcDbLine
 10
15.5
 20
7.5
 30
0.0
 11
17.3408760219
 21
0.0
 31
0.0
  0
LINE
  5
4A1
330
3DA
100
AcDbEntity
  8
0
  6
Continuous
 62
     7
370
    25
100
AcDbLine
 10
0.0
 20
16.5
 30
0.0
 11
-11.1292189394
 21
13.0
 31
0.0
  0
LINE
  5
4A2
330
3DA
100
AcDbEntity
  8
0
  6
Continuous
 62
     7
370
    25
100
AcDbLine
 10
-9.5393305195
 20
-13.5
 30
0.0
 11
-11.1292189394
 21
-13.0
 31
0.0
  0
LINE
  5
4A3
330
3DA
100
AcDbEntity
  8
0
  6
Continuous
 62
     7
370
    25
100
AcDbLine
 10
-11.1292189394
 20
13.0
 30
0.0
 11
-15.5
 21
7.5
 31
0.0
  0
LINE
  5
4A4
330
3DA
100
AcDbEntity
  8
0
  6
Continuous
 62
     7
370
    25
100
AcDbLine
 10
-11.1292189394
 20
-13.0
 30
0.0
 11
-15.5
 21
-7.5
 31
0.0
  0
LINE
  5
4A5
330
3DA
100
AcDbEntity
  8
0
  6
Continuous
 62
     7
370
    25
100
AcDbLine
 10
15.5
 20
7.5
 30
0.0
 11
11.1292189394
 21
13.0
 31
0.0
  0
LINE
  5
4A6
330
3DA
100
AcDbEntity
  8
0
  6
Continuous
 62
     7
370
    25
100
AcDbLine
 10
9.5393305195
 20
-13.5
 30
0.0
 11
11.1292189394
 21
-13.0
 31
0.0
  0
LINE
  5
4A7
330
3DA
100
AcDbEntity
  8
0
  6
Continuous
 62
     7
370
    25
100
AcDbLine
 10
15.5
 20
-7.5
 30
0.0
 11
11.1292189394
 21
-13.0
 31
0.0
  0
LINE
  5
4A8
330
3DA
100
AcDbEntity
  8
0
  6
Continuous
 62
     7
370
    25
100
AcDbLine
 10
0.0
 20
16.5
 30
0.0
 11
11.1292189394
 21
13.0
 31
0.0
  0
LINE
  5
4A9
330
3DA
100
AcDbEntity
  8
0
  6
Continuous
 62
     8
370
    25
100
AcDbLine
 10
-10.5
 20
-15.3518268283
 30
0.0
 11
10.5
 21
-15.3518268283
 31
0.0
  0
LINE
  5
4AA
330
3DA
100
AcDbEntity
  8
0
  6
Continuous
 62
     8
370
    25
100
AcDbLine
 10
10.3582507531
 20
-15.5431559942
 30
0.0
 11
-10.3582507531
 21
-15.5431559942
 31
0.0
  0
LINE
  5
4AB
330
3DA
100
AcDbEntity
  8
0
  6
Continuous
 62
     8
370
    25
100
AcDbLine
 10
10.5
 20
-27.86037961
 30
0.0
 11
-10.5
 21
-27.86037961
 31
0.0
  0
LINE
  5
4AC
330
3DA
100
AcDbEntity
  8
0
  6
Continuous
 62
     8
370
    25
100
AcDbLine
 10
-10.158113883
 20
-27.386037961
 30
0.0
 11
10.158113883
 21
-27.386037961
 31
0.0
  0
LINE
  5
4AD
330
3DA
100
AcDbEntity
  8
0
  6
Continuous
 62
     8
370
    25
100
AcDbLine
 10
7.2154215926
 20
-16.5
 30
0.0
 11
-7.2154215926
 21
-16.5
 31
0.0
  0
LINE
  5
4AE
330
3DA
100
AcDbEntity
  8
0
  6
Continuous
 62
     8
370
    25
100
AcDbLine
 10
9.1367544468
 20
-27.0455848156
 30
0.0
 11
-9.1367544468
 21
-27.0455848156
 31
0.0
  0
LINE
  5
4AF
330
3DA
100
AcDbEntity
  8
0
  6
Continuous
 62
     8
370
    25
100
AcDbLine
 10
-9.0
 20
-26.855848156
 30
0.0
 11
9.0
 21
-26.855848156
 31
0.0
  0
LINE
  5
4B0
330
3DA
100
AcDbEntity
  8
0
  6
Continuous
 62
     8
370
    25
100
AcDbLine
 10
9.0
 20
-25.6865030172
 30
0.0
 11
-9.0
 21
-25.6865030172
 31
0.0
  0
LINE
  5
4B1
330
3DA
100
AcDbEntity
  8
0
  6
Continuous
 62
     8
370
    25
100
AcDbLine
 10
-8.8139512947
 20
-25.4869902072
 30
0.0
 11
8.8139512947
 21
-25.4869902072
 31
0.0
  0
LINE
  5
4B2
330
3DA
100
AcDbEntity
  8
0
  6
Continuous
 62
     8
370
    25
100
AcDbLine
 10
8.2294069587
 20
-25.4461148853
 30
0.0
 11
-8.2294069587
 21
-25.4461148853
 31
0.0
  0
ARC
  5
4B3
330
3DA
100
AcDbEntity
  8
0
  6
Continuous
 62
     7
370
    25
100
AcDbCircle
 10
-10.3
 20
-15.3518268283
 30
0.0
 40
0.2000000000000009
100
AcDbArc
 50
180.0
 51
253.0669679394
  0
ARC
  5
4B4
330
3DA
100
AcDbEntity
  8
0
  6
Continuous
 62
     7
370
    25
100
AcDbCircle
 10
10.3
 20
-15.3518268283
 30
0.0
 40
0.2000000000000025
100
AcDbArc
 50
286.9330320606
 51
0.0
  0
ARC
  5
4B5
330
3DA
100
AcDbEntity
  8
0
  6
Continuous
 62
     7
370
    25
100
AcDbCircle
 10
-10.0
 20
-27.86037961
 30
0.0
 40
0.5000000000000115
100
AcDbArc
 50
108.4349488229
 51
180.0
  0
ARC
  5
4B6
330
3DA
100
AcDbEntity
  8
0
  6
Continuous
 62
     7
370
    25
100
AcDbCircle
 10
10.0
 20
-27.86037961
 30
0.0
 40
0.5000000000000014
100
AcDbArc
 50
0.0
 51
71.5650511771
  0
ARC
  5
4B7
330
3DA
100
AcDbEntity
  8
0
  6
Continuous
 62
     7
370
    25
100
AcDbCircle
 10
9.2
 20
-26.855848156
 30
0.0
 40
0.2000000000000082
100
AcDbArc
 50
180.0
 51
251.5650511771
  0
ARC
  5
4B8
330
3DA
100
AcDbEntity
  8
0
  6
Continuous
 62
     7
370
    25
100
AcDbCircle
 10
-9.2
 20
-26.855848156
 30
0.0
 40
0.200000000000004
100
AcDbArc
 50
288.4349488229
 51
0.0
  0
ARC
  5
4B9
330
3DA
100
AcDbEntity
  8
0
  6
Continuous
 62
     7
370
    25
100
AcDbCircle
 10
-8.8
 20
-25.6865030172
 30
0.0
 40
0.2000000000000082
100
AcDbArc
 50
94.0
 51
180.0
  0
ARC
  5
4BA
330
3DA
100
AcDbEntity
  8
0
  6
Continuous
 62
     7
370
    25
100
AcDbCircle
 10
8.8
 20
-25.6865030172
 30
0.0
 40
0.2000000000000046
100
AcDbArc
 50
0.0
 51
86.0
  0
ARC
  5
4BB
330
3DA
100
AcDbEntity
  8
0
  6
Continuous
 62
     7
370
    25
100
AcDbCircle
 10
8.548742888
 20
-20.8793983369
 30
0.0
 40
4.577868004826208
100
AcDbArc
 50
106.9330320606
 51
266.0
  0
ARC
  5
4BC
330
3DA
100
AcDbEntity
  8
0
  6
Continuous
 62
     7
370
    25
100
AcDbCircle
 10
-8.548742888
 20
-20.8793983369
 30
0.0
 40
4.57786800482621
100
AcDbArc
 50
274.0
 51
73.0669679394
  0
VIEWPORT
  5
888
330
3DA
100
AcDbEntity
  8
0
100
AcDbViewport
 10
0.0
 20
0.0
 30
0.0
 40
205.6
 41
156.0
 68
     1
 69
     1
 12
0.0
 22
0.0
 13
0.0
 23
0.0
 14
10.0
 24
10.0
 15
10.0
 25
10.0
 16
0.0
 26
0.0
 36
1.0
 17
0.0
 27
0.0
 37
0.0
 42
50.0
 43
0.0
 44
0.0
 45
35.3753870846
 50
0.0
 51
0.0
 72
   100
 90
   557152
  1

281
     0
 71
     1
 74
     0
110
0.0
120
0.0
130
0.0
111
1.0
121
0.0
131
0.0
112
0.0
122
1.0
132
0.0
 79
     0
146
0.0
  0
ENDBLK
  5
3DD
330
3DA
100
AcDbEntity
  8
0
100
AcDbBlockEnd
  0
BLOCK
  5
4BF
330
4BD
100
AcDbEntity
  8
0
100
AcDbBlockBegin
  2
*Paper_Space3
 70
     0
 10
0.0
 20
0.0
 30
0.0
  3
*Paper_Space3
  1

  0
CIRCLE
  5
4C1
330
4BD
100
AcDbEntity
  8
0
  6
Continuous
 62
     7
370
    25
100
AcDbCircle
 10
0.0
 20
0.0
 30
0.0
 40
10.50000000000001
  0
CIRCLE
  5
4C2
330
4BD
100
AcDbEntity
  8
0
  6
Continuous
 62
     7
370
    25
100
AcDbCircle
 10
0.0
 20
0.0
 30
0.0
 40
2.75154589182908
  0
SPLINE
  5
4C3
330
4BD
100
AcDbEntity
  8
0
  6
Continuous
 62
     7
370
    25
100
AcDbSpline
210
0.0
220
0.0
230
1.0
 70
     8
 71
     3
 72
    18
 73
    14
 74
     0
 42
0.000000001
 43
0.00000001
 40
0.0
 40
0.0
 40
0.0
 40
0.0
 40
0.125
 40
0.125
 40
0.25
 40
0.25
 40
0.375
 40
0.375
 40
0.5
 40
0.5
 40
0.75
 40
0.75
 40
1.0
 40
1.0
 40
1.0
 40
1.0
 10
1.516883252569661
 20
0.8757729210571699
 30
0.0
 10
1.473015930627632
 20
0.9826956647532278
 30
0.0
 10
1.419300089158604
 20
1.083521609317885
 30
0.0
 10
1.292981901770844
 20
1.273467558176625
 30
0.0
 10
1.219450253847355
 20
1.36344271079602
 30
0.0
 10
1.057073593746229
 20
1.526078124512579
 30
0.0
 10
0.9684785065510247
 20
1.598354855692364
 30
0.0
 10
0.7785179169053602
 20
1.726871080497127
 30
0.0
 10
0.6767811170085268
 20
1.783441457830219
 30
0.0
 10
0.3633590106532087
 20
1.923521582517439
 30
0.0
 10
0.1363010720961088
 20
1.98044510676121
 30
0.0
 10
-0.3187744301990047
 20
2.01328353292669
 30
0.0
 10
-0.5508445847354164
 20
1.990003332098803
 30
0.0
 10
-0.77362151884745
 20
1.926798881442986
 30
0.0
  0
SPLINE
  5
4C5
330
4BD
100
AcDbEntity
  8
0
  6
Continuous
 62
     7
370
    25
100
AcDbSpline
210
0.0
220
0.0
230
1.0
 70
     8
 71
     3
 72
    42
 73
    38
 74
     0
 42
0.000000001
 43
0.00000001
 40
0.0
 40
0.0
 40
0.0
 40
0.0
 40
0.0625000000000001
 40
0.0625000000000001
 40
0.1250000000000002
 40
0.1250000000000002
 40
0.2500000000000003
 40
0.2500000000000003
 40
0.2812500000000003
 40
0.2812500000000003
 40
0.3125000000000003
 40
0.3125000000000003
 40
0.3750000000000003
 40
0.3750000000000003
 40
0.4375000000000003
 40
0.4375000000000003
 40
0.5000000000000003
 40
0.5000000000000003
 40
0.5625000000000004
 40
0.5625000000000004
 40
0.6250000000000004
 40
0.6250000000000004
 40
0.6875000000000004
 40
0.6875000000000004
 40
0.7500000000000003
 40
0.7500000000000003
 40
0.8125000000000003
 40
0.8125000000000003
 40
0.8750000000000003
 40
0.8750000000000003
 40
0.9062500000000003
 40
0.9062500000000003
 40
0.9375000000000002
 40
0.9375000000000002
 40
0.9687500000000002
 40
0.9687500000000002
 40
1.0
 40
1.0
 40
1.0
 40
1.0
 10
0.7836075437743715
 20
1.922759319648112
 30
0.0
 10
0.981396527864657
 20
1.835554207696223
 30
0.0
 10
1.161072355798008
 20
1.720917311099101
 30
0.0
 10
1.482934745513918
 20
1.43502348997065
 30
0.0
 10
1.619226670740645
 20
1.268615549034937
 30
0.0
 10
1.943932556183297
 20
0.7133447298087332
 30
0.0
 10
2.039653931638834
 20
0.2732441899496105
 30
0.0
 10
1.983998371501837
 20
-0.2578575444868563
 30
0.0
 10
1.963912190072594
 20
-0.3647338397522608
 30
0.0
 10
1.90712232000754
 20
-0.5716466503066376
 30
0.0
 10
1.87060775439074
 20
-0.6718399517792982
 30
0.0
 10
1.737092916359302
 20
-0.9627861787961005
 30
0.0
 10
1.614727221301141
 20
-1.144278425305826
 30
0.0
 10
1.321906058437909
 20
-1.454745277456313
 30
0.0
 10
1.147754643016174
 20
-1.587630681062874
 30
0.0
 10
0.7710750649341575
 20
-1.787834621761607
 30
0.0
 10
0.5628062421521439
 20
-1.856891581580811
 30
0.0
 10
0.1411869105923258
 20
-1.921386322024279
 30
0.0
 10
-0.0781974214008718
 20
-1.91775622697882
 30
0.0
 10
-0.4976433316144743
 20
-1.839239280172586
 30
0.0
 10
-0.7034795177281516
 20
-1.763284333024838
 30
0.0
 10
-1.073381429967959
 20
-1.550563197905248
 30
0.0
 10
-1.242198949333623
 20
-1.410054777484464
 30
0.0
 10
-1.517574810415391
 20
-1.08416512954648
 30
0.0
 10
-1.628112602064816
 20
-0.8944025652904043
 30
0.0
 10
-1.775749746442258
 20
-0.4937779165808076
 30
0.0
 10
-1.814795206223273
 20
-0.2777705080304315
 30
0.0
 10
-1.816741555515044
 20
0.1492911267514478
 30
0.0
 10
-1.778817971577184
 20
0.36559211502695
 30
0.0
 10
-1.667441852868442
 20
0.6659702632349552
 30
0.0
 10
-1.620649569848073
 20
0.7640969559515218
 30
0.0
 10
-1.510819289904713
 20
0.9489645448488448
 30
0.0
 10
-1.448192361080469
 20
1.035483996574447
 30
0.0
 10
-1.307748664495171
 20
1.196873511158328
 30
0.0
 10
-1.229138703434549
 20
1.272273432326716
 30
0.0
 10
-1.060948772874363
 20
1.406464714452435
 30
0.0
 10
-0.9712301752071104
 20
1.465689655103019
 30
0.0
 10
-0.8757729459145402
 20
1.516883238218252
 30
0.0
  0
SPLINE
  5
4C6
330
4BD
100
AcDbEntity
  8
0
  6
Continuous
 62
     7
370
    25
100
AcDbSpline
210
0.0
220
0.0
230
1.0
 70
     8
 71
     3
 72
    10
 73
     6
 74
     0
 42
0.000000001
 43
0.00000001
 40
0.0
 40
0.0
 40
0.0
 40
0.0
 40
0.5
 40
0.5
 40
1.0
 40
1.0
 40
1.0
 40
1.0
 10
-0.7736215188474339
 20
1.926798881442991
 30
0.0
 10
-0.5253294721267839
 20
2.026489654648088
 30
0.0
 10
-0.2614417643391059
 20
2.07699451347926
 30
0.0
 10
0.2722747767901733
 20
2.075602189989101
 30
0.0
 10
0.5358360449300478
 20
2.023736916606126
 30
0.0
 10
0.7836075437743415
 20
1.922759319648127
 30
0.0
  0
SPLINE
  5
4C7
330
4BD
100
AcDbEntity
  8
0
  6
Continuous
 62
     7
370
    25
100
AcDbSpline
210
0.0
220
0.0
230
1.0
 70
     8
 71
     3
 72
    23
 73
    19
 74
     0
 42
0.000000001
 43
0.00000001
 40
0.0
 40
0.0
 40
0.0
 40
0.0
 40
0.0420582428369538
 40
0.0833528233314873
 40
0.1485342461196565
 40
0.2162263007304798
 40
0.2845324700554456
 40
0.3502978701358831
 40
0.416806926126167
 40
0.4852597640462176
 40
0.552404434926695
 40
0.6177261670245237
 40
0.6857590101194198
 40
0.7538357909088528
 40
0.8191993007574024
 40
0.886265922654187
 40
0.947205572397798
 40
1.0
 40
1.0
 40
1.0
 40
1.0
 10
1.516883252569661
 20
0.8757729210571699
 30
0.0
 10
1.567525367629416
 20
0.7755620639185837
 30
0.0
 10
1.667890075828774
 20
0.5769599039721776
 30
0.0
 10
1.757958474801923
 20
0.1886873436901793
 30
0.0
 10
1.756707716787621
 20
-0.2814921203546115
 30
0.0
 10
1.590205013929624
 20
-0.7997080418403477
 30
0.0
 10
1.272643638217557
 20
-1.243434591988725
 30
0.0
 10
0.8387275622631858
 20
-1.568294220570298
 30
0.0
 10
0.3272387296344036
 20
-1.749268969153919
 30
0.0
 10
-0.2192134005653521
 20
-1.766333752195167
 30
0.0
 10
-0.741417150565895
 20
-1.6166635575609
 30
0.0
 10
-1.193873544906058
 20
-1.318824140322683
 30
0.0
 10
-1.537965215404687
 20
-0.8963611314108314
 30
0.0
 10
-1.735865548866782
 20
-0.3888658655022236
 30
0.0
 10
-1.772488649404208
 20
0.1522581296681554
 30
0.0
 10
-1.648095108177282
 20
0.6583381187017618
 30
0.0
 10
-1.408216208463752
 20
1.086546839418255
 30
0.0
 10
-1.177683596395197
 20
1.28543115094796
 30
0.0
 10
-1.070672245164081
 20
1.377751620162682
 30
0.0
  0
LINE
  5
529
330
4BD
100
AcDbEntity
  8
0
  6
Continuous
 62
     7
370
    25
100
AcDbLine
 10
-0.9730951493
 20
1.4474084085
 30
0.0
 11
-0.7503676303
 21
1.5681449058
 31
0.0
  0
LINE
  5
52A
330
4BD
100
AcDbEntity
  8
0
  6
Continuous
 62
     7
370
    25
100
AcDbLine
 10
-11.1292189394
 20
0.0
 30
0.0
 11
-9.6381863258
 21
5.5646094697
 31
0.0
  0
LINE
  5
52B
330
4BD
100
AcDbEntity
  8
0
  6
Continuous
 62
     7
370
    25
100
AcDbLine
 10
-9.0932667397
 20
5.25
 30
0.0
 11
-9.6381863258
 21
5.5646094697
 31
0.0
  0
LINE
  5
52C
330
4BD
100
AcDbEntity
  8
0
  6
Continuous
 62
     7
370
    25
100
AcDbLine
 10
-10.5
 20
0.0
 30
0.0
 11
-11.1292189394
 21
0.0
 31
0.0
  0
LINE
  5
52D
330
4BD
100
AcDbEntity
  8
0
  6
Continuous
 62
     7
370
    25
100
AcDbLine
 10
11.1292189394
 20
0.0
 30
0.0
 11
9.6381863258
 21
-5.5646094697
 31
0.0
  0
LINE
  5
52E
330
4BD
100
AcDbEntity
  8
0
  6
Continuous
 62
     7
370
    25
100
AcDbLine
 10
9.0932667397
 20
-5.25
 30
0.0
 11
9.6381863258
 21
-5.5646094697
 31
0.0
  0
LINE
  5
52F
330
4BD
100
AcDbEntity
  8
0
  6
Continuous
 62
     7
370
    25
100
AcDbLine
 10
10.5
 20
0.0
 30
0.0
 11
11.1292189394
 21
0.0
 31
0.0
  0
LINE
  5
530
330
4BD
100
AcDbEntity
  8
0
  6
Continuous
 62
     7
370
    25
100
AcDbLine
 10
-9.6381863258
 20
5.5646094697
 30
0.0
 11
-5.5646094697
 21
9.6381863258
 31
0.0
  0
LINE
  5
531
330
4BD
100
AcDbEntity
  8
0
  6
Continuous
 62
     7
370
    25
100
AcDbLine
 10
-5.25
 20
9.0932667397
 30
0.0
 11
-5.5646094697
 21
9.6381863258
 31
0.0
  0
LINE
  5
532
330
4BD
100
AcDbEntity
  8
0
  6
Continuous
 62
     7
370
    25
100
AcDbLine
 10
-5.5646094697
 20
9.6381863258
 30
0.0
 11
0.0
 21
11.1292189394
 31
0.0
  0
LINE
  5
533
330
4BD
100
AcDbEntity
  8
0
  6
Continuous
 62
     7
370
    25
100
AcDbLine
 10
0.0
 20
10.5
 30
0.0
 11
0.0
 21
11.1292189394
 31
0.0
  0
LINE
  5
534
330
4BD
100
AcDbEntity
  8
0
  6
Continuous
 62
     7
370
    25
100
AcDbLine
 10
9.6381863258
 20
5.5646094697
 30
0.0
 11
11.1292189394
 21
0.0
 31
0.0
  0
LINE
  5
535
330
4BD
100
AcDbEntity
  8
0
  6
Continuous
 62
     7
370
    25
100
AcDbLine
 10
9.0932667397
 20
5.25
 30
0.0
 11
9.6381863258
 21
5.5646094697
 31
0.0
  0
LINE
  5
536
330
4BD
100
AcDbEntity
  8
0
  6
Continuous
 62
     7
370
    25
100
AcDbLine
 10
0.0
 20
-11.1292189394
 30
0.0
 11
-5.5646094697
 21
-9.6381863258
 31
0.0
  0
LINE
  5
537
330
4BD
100
AcDbEntity
  8
0
  6
Continuous
 62
     7
370
    25
100
AcDbLine
 10
-5.25
 20
-9.0932667397
 30
0.0
 11
-5.5646094697
 21
-9.6381863258
 31
0.0
  0
LINE
  5
538
330
4BD
100
AcDbEntity
  8
0
  6
Continuous
 62
     7
370
    25
100
AcDbLine
 10
0.0
 20
-10.5
 30
0.0
 11
0.0
 21
-11.1292189394
 31
0.0
  0
LINE
  5
539
330
4BD
100
AcDbEntity
  8
0
  6
Continuous
 62
     7
370
    25
100
AcDbLine
 10
0.0
 20
11.1292189394
 30
0.0
 11
5.5646094697
 21
9.6381863258
 31
0.0
  0
LINE
  5
53A
330
4BD
100
AcDbEntity
  8
0
  6
Continuous
 62
     7
370
    25
100
AcDbLine
 10
5.25
 20
9.0932667397
 30
0.0
 11
5.5646094697
 21
9.6381863258
 31
0.0
  0
LINE
  5
53B
330
4BD
100
AcDbEntity
  8
0
  6
Continuous
 62
     7
370
    25
100
AcDbLine
 10
5.5646094697
 20
9.6381863258
 30
0.0
 11
9.6381863258
 21
5.5646094697
 31
0.0
  0
LINE
  5
53C
330
4BD
100
AcDbEntity
  8
0
  6
Continuous
 62
     7
370
    25
100
AcDbLine
 10
5.5646094697
 20
-9.6381863258
 30
0.0
 11
0.0
 21
-11.1292189394
 31
0.0
  0
LINE
  5
53D
330
4BD
100
AcDbEntity
  8
0
  6
Continuous
 62
     7
370
    25
100
AcDbLine
 10
5.25
 20
-9.0932667397
 30
0.0
 11
5.5646094697
 21
-9.6381863258
 31
0.0
  0
LINE
  5
53E
330
4BD
100
AcDbEntity
  8
0
  6
Continuous
 62
     7
370
    25
100
AcDbLine
 10
9.6381863258
 20
-5.5646094697
 30
0.0
 11
5.5646094697
 21
-9.6381863258
 31
0.0
  0
LINE
  5
53F
330
4BD
100
AcDbEntity
  8
0
  6
Continuous
 62
     7
370
    25
100
AcDbLine
 10
-5.5646094697
 20
-9.6381863258
 30
0.0
 11
-9.6381863258
 21
-5.5646094697
 31
0.0
  0
LINE
  5
540
330
4BD
100
AcDbEntity
  8
0
  6
Continuous
 62
     7
370
    25
100
AcDbLine
 10
-9.0932667397
 20
-5.25
 30
0.0
 11
-9.6381863258
 21
-5.5646094697
 31
0.0
  0
LINE
  5
541
330
4BD
100
AcDbEntity
  8
0
  6
Continuous
 62
     7
370
    25
100
AcDbLine
 10
-9.6381863258
 20
-5.5646094697
 30
0.0
 11
-11.1292189394
 21
0.0
 31
0.0
  0
LINE
  5
542
330
4BD
100
AcDbEntity
  8
0
  6
Continuous
 62
     7
370
    25
100
AcDbLine
 10
4.1532124827
 20
-15.5
 30
0.0
 11
0.0
 21
-11.1292189394
 31
0.0
  0
LINE
  5
543
330
4BD
100
AcDbEntity
  8
0
  6
Continuous
 62
     7
370
    25
100
AcDbLine
 10
5.5646094697
 20
-9.6381863258
 30
0.0
 11
4.1532124827
 21
-15.5
 31
0.0
  0
LINE
  5
544
330
4BD
100
AcDbEntity
  8
0
  6
Continuous
 62
     7
370
    25
100
AcDbLine
 10
5.5646094697
 20
-9.6381863258
 30
0.0
 11
11.3467875173
 21
-11.3467875173
 31
0.0
  0
LINE
  5
545
330
4BD
100
AcDbEntity
  8
0
  6
Continuous
 62
     7
370
    25
100
AcDbLine
 10
9.6381863258
 20
-5.5646094697
 30
0.0
 11
11.3467875173
 21
-11.3467875173
 31
0.0
  0
LINE
  5
546
330
4BD
100
AcDbEntity
  8
0
  6
Continuous
 62
     7
370
    25
100
AcDbLine
 10
4.1532124827
 20
-15.5
 30
0.0
 11
-4.1532124827
 21
-15.5
 31
0.0
  0
LINE
  5
547
330
4BD
100
AcDbEntity
  8
0
  6
Continuous
 62
     7
370
    25
100
AcDbLine
 10
-4.1532124827
 20
-15.5
 30
0.0
 11
0.0
 21
-11.1292189394
 31
0.0
  0
LINE
  5
548
330
4BD
100
AcDbEntity
  8
0
  6
Continuous
 62
     7
370
    25
100
AcDbLine
 10
5.5646094697
 20
9.6381863258
 30
0.0
 11
4.1532124827
 21
15.5
 31
0.0
  0
LINE
  5
549
330
4BD
100
AcDbEntity
  8
0
  6
Continuous
 62
     7
370
    25
100
AcDbLine
 10
0.0
 20
11.1292189394
 30
0.0
 11
4.1532124827
 21
15.5
 31
0.0
  0
LINE
  5
54A
330
4BD
100
AcDbEntity
  8
0
  6
Continuous
 62
     7
370
    25
100
AcDbLine
 10
-4.1532124827
 20
-15.5
 30
0.0
 11
-5.5646094697
 21
-9.6381863258
 31
0.0
  0
LINE
  5
54B
330
4BD
100
AcDbEntity
  8
0
  6
Continuous
 62
     7
370
    25
100
AcDbLine
 10
-15.5
 20
-4.1532124827
 30
0.0
 11
-11.1292189394
 21
0.0
 31
0.0
  0
LINE
  5
54C
330
4BD
100
AcDbEntity
  8
0
  6
Continuous
 62
     7
370
    25
100
AcDbLine
 10
-15.5
 20
-4.1532124827
 30
0.0
 11
-9.6381863258
 21
-5.5646094697
 31
0.0
  0
LINE
  5
54D
330
4BD
100
AcDbEntity
  8
0
  6
Continuous
 62
     7
370
    25
100
AcDbLine
 10
11.1292189394
 20
0.0
 30
0.0
 11
15.5
 21
4.1532124827
 31
0.0
  0
LINE
  5
54E
330
4BD
100
AcDbEntity
  8
0
  6
Continuous
 62
     7
370
    25
100
AcDbLine
 10
9.6381863258
 20
5.5646094697
 30
0.0
 11
15.5
 21
4.1532124827
 31
0.0
  0
LINE
  5
54F
330
4BD
100
AcDbEntity
  8
0
  6
Continuous
 62
     7
370
    25
100
AcDbLine
 10
-11.3467875173
 20
-11.3467875173
 30
0.0
 11
-9.6381863258
 21
-5.5646094697
 31
0.0
  0
LINE
  5
550
330
4BD
100
AcDbEntity
  8
0
  6
Continuous
 62
     7
370
    25
100
AcDbLine
 10
-11.3467875173
 20
-11.3467875173
 30
0.0
 11
-15.5
 21
-4.1532124827
 31
0.0
  0
LINE
  5
551
330
4BD
100
AcDbEntity
  8
0
  6
Continuous
 62
     7
370
    25
100
AcDbLine
 10
15.5
 20
4.1532124827
 30
0.0
 11
15.5
 21
-4.1532124827
 31
0.0
  0
LINE
  5
552
330
4BD
100
AcDbEntity
  8
0
  6
Continuous
 62
     7
370
    25
100
AcDbLine
 10
11.1292189394
 20
0.0
 30
0.0
 11
15.5
 21
-4.1532124827
 31
0.0
  0
LINE
  5
553
330
4BD
100
AcDbEntity
  8
0
  6
Continuous
 62
     7
370
    25
100
AcDbLine
 10
-11.3467875173
 20
-11.3467875173
 30
0.0
 11
-5.5646094697
 21
-9.6381863258
 31
0.0
  0
LINE
  5
554
330
4BD
100
AcDbEntity
  8
0
  6
Continuous
 62
     7
370
    25
100
AcDbLine
 10
9.6381863258
 20
-5.5646094697
 30
0.0
 11
15.5
 21
-4.1532124827
 31
0.0
  0
LINE
  5
555
330
4BD
100
AcDbEntity
  8
0
  6
Continuous
 62
     7
370
    25
100
AcDbLine
 10
-4.1532124827
 20
-15.5
 30
0.0
 11
-11.3467875173
 21
-11.3467875173
 31
0.0
  0
LINE
  5
556
330
4BD
100
AcDbEntity
  8
0
  6
Continuous
 62
     7
370
    25
100
AcDbLine
 10
15.5
 20
-4.1532124827
 30
0.0
 11
11.3467875173
 21
-11.3467875173
 31
0.0
  0
LINE
  5
557
330
4BD
100
AcDbEntity
  8
0
  6
Continuous
 62
     7
370
    25
100
AcDbLine
 10
-11.3467875173
 20
11.3467875173
 30
0.0
 11
-5.5646094697
 21
9.6381863258
 31
0.0
  0
LINE
  5
558
330
4BD
100
AcDbEntity
  8
0
  6
Continuous
 62
     7
370
    25
100
AcDbLine
 10
-11.3467875173
 20
11.3467875173
 30
0.0
 11
-4.1532124827
 21
15.5
 31
0.0
  0
LINE
  5
559
330
4BD
100
AcDbEntity
  8
0
  6
Continuous
 62
     7
370
    25
100
AcDbLine
 10
-4.1532124827
 20
15.5
 30
0.0
 11
-5.5646094697
 21
9.6381863258
 31
0.0
  0
LINE
  5
55A
330
4BD
100
AcDbEntity
  8
0
  6
Continuous
 62
     7
370
    25
100
AcDbLine
 10
0.0
 20
11.1292189394
 30
0.0
 11
-4.1532124827
 21
15.5
 31
0.0
  0
LINE
  5
55B
330
4BD
100
AcDbEntity
  8
0
  6
Continuous
 62
     7
370
    25
100
AcDbLine
 10
-4.1532124827
 20
15.5
 30
0.0
 11
4.1532124827
 21
15.5
 31
0.0
  0
LINE
  5
55C
330
4BD
100
AcDbEntity
  8
0
  6
Continuous
 62
     7
370
    25
100
AcDbLine
 10
-11.3467875173
 20
11.3467875173
 30
0.0
 11
-9.6381863258
 21
5.5646094697
 31
0.0
  0
LINE
  5
55D
330
4BD
100
AcDbEntity
  8
0
  6
Continuous
 62
     7
370
    25
100
AcDbLine
 10
9.6381863258
 20
5.5646094697
 30
0.0
 11
11.3467875173
 21
11.3467875173
 31
0.0
  0
LINE
  5
55E
330
4BD
100
AcDbEntity
  8
0
  6
Continuous
 62
     7
370
    25
100
AcDbLine
 10
5.5646094697
 20
9.6381863258
 30
0.0
 11
11.3467875173
 21
11.3467875173
 31
0.0
  0
LINE
  5
55F
330
4BD
100
AcDbEntity
  8
0
  6
Continuous
 62
     7
370
    25
100
AcDbLine
 10
-15.5
 20
4.1532124827
 30
0.0
 11
-9.6381863258
 21
5.5646094697
 31
0.0
  0
LINE
  5
560
330
4BD
100
AcDbEntity
  8
0
  6
Continuous
 62
     7
370
    25
100
AcDbLine
 10
-15.5
 20
4.1532124827
 30
0.0
 11
-11.3467875173
 21
11.3467875173
 31
0.0
  0
LINE
  5
561
330
4BD
100
AcDbEntity
  8
0
  6
Continuous
 62
     7
370
    25
100
AcDbLine
 10
4.1532124827
 20
15.5
 30
0.0
 11
11.3467875173
 21
11.3467875173
 31
0.0
  0
LINE
  5
562
330
4BD
100
AcDbEntity
  8
0
  6
Continuous
 62
     7
370
    25
100
AcDbLine
 10
-15.5
 20
4.1532124827
 30
0.0
 11
-11.1292189394
 21
0.0
 31
0.0
  0
LINE
  5
563
330
4BD
100
AcDbEntity
  8
0
  6
Continuous
 62
     7
370
    25
100
AcDbLine
 10
11.3467875173
 20
11.3467875173
 30
0.0
 11
15.5
 21
4.1532124827
 31
0.0
  0
LINE
  5
564
330
4BD
100
AcDbEntity
  8
0
  6
Continuous
 62
     7
370
    25
100
AcDbLine
 10
-15.5
 20
-4.1532124827
 30
0.0
 11
-15.5
 21
4.1532124827
 31
0.0
  0
LINE
  5
565
330
4BD
100
AcDbEntity
  8
0
  6
Continuous
 62
     7
370
    25
100
AcDbLine
 10
11.3467875173
 20
-11.3467875173
 30
0.0
 11
4.1532124827
 21
-15.5
 31
0.0
  0
LINE
  5
566
330
4BD
100
AcDbEntity
  8
0
  6
Continuous
 62
     7
370
    25
100
AcDbLine
 10
0.0
 20
17.3408760219
 30
0.0
 11
-8.6704380109
 21
15.0176391588
 31
0.0
  0
LINE
  5
567
330
4BD
100
AcDbEntity
  8
0
  6
Continuous
 62
     7
370
    25
100
AcDbLine
 10
0.0
 20
17.3408760219
 30
0.0
 11
-4.1532124827
 21
15.5
 31
0.0
  0
LINE
  5
568
330
4BD
100
AcDbEntity
  8
0
  6
Continuous
 62
     7
370
    25
100
AcDbLine
 10
-4.1532124827
 20
15.5
 30
0.0
 11
-8.6704380109
 21
15.0176391588
 31
0.0
  0
LINE
  5
569
330
4BD
100
AcDbEntity
  8
0
  6
Continuous
 62
     7
370
    25
100
AcDbLine
 10
0.0
 20
17.3408760219
 30
0.0
 11
4.1532124827
 21
15.5
 31
0.0
  0
LINE
  5
56A
330
4BD
100
AcDbEntity
  8
0
  6
Continuous
 62
     7
370
    25
100
AcDbLine
 10
-11.3467875173
 20
11.3467875173
 30
0.0
 11
-8.6704380109
 21
15.0176391588
 31
0.0
  0
LINE
  5
56B
330
4BD
100
AcDbEntity
  8
0
  6
Continuous
 62
     7
370
    25
100
AcDbLine
 10
8.6704380109
 20
15.0176391588
 30
0.0
 11
0.0
 21
17.3408760219
 31
0.0
  0
LINE
  5
56C
330
4BD
100
AcDbEntity
  8
0
  6
Continuous
 62
     7
370
    25
100
AcDbLine
 10
8.6704380109
 20
15.0176391588
 30
0.0
 11
4.1532124827
 21
15.5
 31
0.0
  0
LINE
  5
56D
330
4BD
100
AcDbEntity
  8
0
  6
Continuous
 62
     7
370
    25
100
AcDbLine
 10
-15.5
 20
4.1532124827
 30
0.0
 11
-15.0176391588
 21
8.6704380109
 31
0.0
  0
LINE
  5
56E
330
4BD
100
AcDbEntity
  8
0
  6
Continuous
 62
     7
370
    25
100
AcDbLine
 10
-11.3467875173
 20
11.3467875173
 30
0.0
 11
-15.0176391588
 21
8.6704380109
 31
0.0
  0
LINE
  5
56F
330
4BD
100
AcDbEntity
  8
0
  6
Continuous
 62
     7
370
    25
100
AcDbLine
 10
8.6704380109
 20
15.0176391588
 30
0.0
 11
11.3467875173
 21
11.3467875173
 31
0.0
  0
LINE
  5
570
330
4BD
100
AcDbEntity
  8
0
  6
Continuous
 62
     7
370
    25
100
AcDbLine
 10
-8.6704380109
 20
15.0176391588
 30
0.0
 11
-15.0176391588
 21
8.6704380109
 31
0.0
  0
LINE
  5
571
330
4BD
100
AcDbEntity
  8
0
  6
Continuous
 62
     7
370
    25
100
AcDbLine
 10
15.0176391588
 20
8.6704380109
 30
0.0
 11
8.6704380109
 21
15.0176391588
 31
0.0
  0
LINE
  5
572
330
4BD
100
AcDbEntity
  8
0
  6
Continuous
 62
     7
370
    25
100
AcDbLine
 10
15.0176391588
 20
8.6704380109
 30
0.0
 11
11.3467875173
 21
11.3467875173
 31
0.0
  0
LINE
  5
573
330
4BD
100
AcDbEntity
  8
0
  6
Continuous
 62
     7
370
    25
100
AcDbLine
 10
-15.5
 20
-4.1532124827
 30
0.0
 11
-17.3408760219
 21
0.0
 31
0.0
  0
LINE
  5
574
330
4BD
100
AcDbEntity
  8
0
  6
Continuous
 62
     7
370
    25
100
AcDbLine
 10
-15.5
 20
4.1532124827
 30
0.0
 11
-17.3408760219
 21
0.0
 31
0.0
  0
LINE
  5
575
330
4BD
100
AcDbEntity
  8
0
  6
Continuous
 62
     7
370
    25
100
AcDbLine
 10
15.0176391588
 20
8.6704380109
 30
0.0
 11
15.5
 21
4.1532124827
 31
0.0
  0
LINE
  5
576
330
4BD
100
AcDbEntity
  8
0
  6
Continuous
 62
     7
370
    25
100
AcDbLine
 10
-17.3408760219
 20
0.0
 30
0.0
 11
-15.0176391588
 21
-8.6704380109
 31
0.0
  0
LINE
  5
577
330
4BD
100
AcDbEntity
  8
0
  6
Continuous
 62
     7
370
    25
100
AcDbLine
 10
-15.5
 20
-4.1532124827
 30
0.0
 11
-15.0176391588
 21
-8.6704380109
 31
0.0
  0
LINE
  5
578
330
4BD
100
AcDbEntity
  8
0
  6
Continuous
 62
     7
370
    25
100
AcDbLine
 10
17.3408760219
 20
0.0
 30
0.0
 11
15.0176391588
 21
8.6704380109
 31
0.0
  0
LINE
  5
579
330
4BD
100
AcDbEntity
  8
0
  6
Continuous
 62
     7
370
    25
100
AcDbLine
 10
17.3408760219
 20
0.0
 30
0.0
 11
15.5
 21
4.1532124827
 31
0.0
  0
LINE
  5
57A
330
4BD
100
AcDbEntity
  8
0
  6
Continuous
 62
     7
370
    25
100
AcDbLine
 10
-11.3467875173
 20
-11.3467875173
 30
0.0
 11
-15.0176391588
 21
-8.6704380109
 31
0.0
  0
LINE
  5
57B
330
4BD
100
AcDbEntity
  8
0
  6
Continuous
 62
     7
370
    25
100
AcDbLine
 10
17.3408760219
 20
0.0
 30
0.0
 11
15.5
 21
-4.1532124827
 31
0.0
  0
LINE
  5
57C
330
4BD
100
AcDbEntity
  8
0
  6
Continuous
 62
     7
370
    25
100
AcDbLine
 10
-15.0176391588
 20
-8.6704380109
 30
0.0
 11
-8.6704380109
 21
-15.0176391588
 31
0.0
  0
LINE
  5
57D
330
4BD
100
AcDbEntity
  8
0
  6
Continuous
 62
     7
370
    25
100
AcDbLine
 10
-11.3467875173
 20
-11.3467875173
 30
0.0
 11
-8.6704380109
 21
-15.0176391588
 31
0.0
  0
LINE
  5
57E
330
4BD
100
AcDbEntity
  8
0
  6
Continuous
 62
     7
370
    25
100
AcDbLine
 10
15.0176391588
 20
-8.6704380109
 30
0.0
 11
17.3408760219
 21
0.0
 31
0.0
  0
LINE
  5
57F
330
4BD
100
AcDbEntity
  8
0
  6
Continuous
 62
     7
370
    25
100
AcDbLine
 10
15.0176391588
 20
-8.6704380109
 30
0.0
 11
15.5
 21
-4.1532124827
 31
0.0
  0
LINE
  5
580
330
4BD
100
AcDbEntity
  8
0
  6
Continuous
 62
     7
370
    25
100
AcDbLine
 10
-4.1532124827
 20
-15.5
 30
0.0
 11
-8.6704380109
 21
-15.0176391588
 31
0.0
  0
LINE
  5
581
330
4BD
100
AcDbEntity
  8
0
  6
Continuous
 62
     7
370
    25
100
AcDbLine
 10
15.0176391588
 20
-8.6704380109
 30
0.0
 11
11.3467875173
 21
-11.3467875173
 31
0.0
  0
LINE
  5
582
330
4BD
100
AcDbEntity
  8
0
  6
Continuous
 62
     7
370
    25
100
AcDbLine
 10
-8.6704380109
 20
-15.0176391588
 30
0.0
 11
0.0
 21
-17.3408760219
 31
0.0
  0
LINE
  5
583
330
4BD
100
AcDbEntity
  8
0
  6
Continuous
 62
     7
370
    25
100
AcDbLine
 10
-4.1532124827
 20
-15.5
 30
0.0
 11
0.0
 21
-17.3408760219
 31
0.0
  0
LINE
  5
584
330
4BD
100
AcDbEntity
  8
0
  6
Continuous
 62
     7
370
    25
100
AcDbLine
 10
8.6704380109
 20
-15.0176391588
 30
0.0
 11
15.0176391588
 21
-8.6704380109
 31
0.0
  0
LINE
  5
585
330
4BD
100
AcDbEntity
  8
0
  6
Continuous
 62
     7
370
    25
100
AcDbLine
 10
8.6704380109
 20
-15.0176391588
 30
0.0
 11
11.3467875173
 21
-11.3467875173
 31
0.0
  0
LINE
  5
586
330
4BD
100
AcDbEntity
  8
0
  6
Continuous
 62
     7
370
    25
100
AcDbLine
 10
4.1532124827
 20
-15.5
 30
0.0
 11
0.0
 21
-17.3408760219
 31
0.0
  0
LINE
  5
587
330
4BD
100
AcDbEntity
  8
0
  6
Continuous
 62
     7
370
    25
100
AcDbLine
 10
8.6704380109
 20
-15.0176391588
 30
0.0
 11
4.1532124827
 21
-15.5
 31
0.0
  0
LINE
  5
588
330
4BD
100
AcDbEntity
  8
0
  6
Continuous
 62
     7
370
    25
100
AcDbLine
 10
0.0
 20
-17.3408760219
 30
0.0
 11
8.6704380109
 21
-15.0176391588
 31
0.0
  0
LINE
  5
589
330
4BD
100
AcDbEntity
  8
0
  6
Continuous
 62
     7
370
    25
100
AcDbLine
 10
-15.0176391588
 20
8.6704380109
 30
0.0
 11
-17.3408760219
 21
0.0
 31
0.0
  0
ARC
  5
58A
330
4BD
100
AcDbEntity
  8
0
  6
Continuous
 62
     7
370
    25
100
AcDbCircle
 10
0.0
 20
0.0
 30
0.0
 40
1.751545891829079
100
AcDbArc
 50
29.9999990611
 51
120.0
  0
VIEWPORT
  5
88A
330
4BD
100
AcDbEntity
  8
0
100
AcDbViewport
 10
0.0
 20
0.0
 30
0.0
 40
205.6
 41
156.0
 68
     1
 69
     1
 12
0.0
 22
0.0
 13
0.0
 23
0.0
 14
10.0
 24
10.0
 15
10.0
 25
10.0
 16
0.0
 26
0.0
 36
1.0
 17
0.0
 27
0.0
 37
0.0
 42
50.0
 43
0.0
 44
0.0
 45
35.3753870846
 50
0.0
 51
0.0
 72
   100
 90
   557152
  1

281
     0
 71
     1
 74
     0
110
0.0
120
0.0
130
0.0
111
1.0
121
0.0
131
0.0
112
0.0
122
1.0
132
0.0
 79
     0
146
0.0
  0
ENDBLK
  5
4C0
330
4BD
100
AcDbEntity
  8
0
100
AcDbBlockEnd
  0
BLOCK
  5
58D
330
58B
100
AcDbEntity
  8
0
100
AcDbBlockBegin
  2
*Paper_Space4
 70
     0
 10
0.0
 20
0.0
 30
0.0
  3
*Paper_Space4
  1

  0
SPLINE
  5
58F
330
58B
100
AcDbEntity
  8
0
  6
Continuous
 62
     7
370
    25
100
AcDbSpline
210
0.0
220
0.0
230
1.0
 70
     8
 71
     3
 72
    17
 73
    13
 74
     0
 42
0.000000001
 43
0.00000001
 40
0.0
 40
0.0
 40
0.0
 40
0.0
 40
0.0918367261882438
 40
0.1914764976747215
 40
0.2914233262164391
 40
0.3916852119720472
 40
0.4922346034440059
 40
0.593022096942784
 40
0.6939900109060232
 40
0.7950826317044075
 40
0.8962521710601833
 40
1.0
 40
1.0
 40
1.0
 40
1.0
 10
-10.35914773187944
 20
-13.53809001963311
 30
0.0
 10
-10.32329880615835
 20
-13.65585202635185
 30
0.0
 10
-10.24855499692886
 20
-13.90138186546469
 30
0.0
 10
-10.0846005926258
 20
-14.26763128131894
 30
0.0
 10
-9.87980233218584
 20
-14.63696737470964
 30
0.0
 10
-9.634592741559478
 20
-14.99791933192411
 30
0.0
 10
-9.35107692220043
 20
-15.34915992751391
 30
0.0
 10
-9.029979193142472
 20
-15.68913996187597
 30
0.0
 10
-8.672889216070914
 20
-16.01654656050455
 30
0.0
 10
-8.28055794364433
 20
-16.32957183614252
 30
0.0
 10
-7.853791961210874
 20
-16.63105855403282
 30
0.0
 10
-7.541368779337938
 20
-16.81830399851079
 30
0.0
 10
-7.383191719485059
 20
-16.91310469063875
 30
0.0
  0
SPLINE
  5
590
330
58B
100
AcDbEntity
  8
0
  6
Continuous
 62
     7
370
    25
100
AcDbSpline
210
0.0
220
0.0
230
1.0
 70
     8
 71
     3
 72
    43
 73
    39
 74
     0
 42
0.000000001
 43
0.00000001
 40
0.0
 40
0.0
 40
0.0
 40
0.0
 40
0.0152258398131373
 40
0.0441089451981997
 40
0.0729881745375375
 40
0.1018603485990004
 40
0.1307245516715006
 40
0.1595806452544613
 40
0.1884290173618985
 40
0.2172704028280079
 40
0.2461057585234712
 40
0.2749361793188482
 40
0.3037628433271932
 40
0.332586977611313
 40
0.3614098377458985
 40
0.3902326962823313
 40
0.419056556996256
 40
0.4478825619559549
 40
0.4767120036895016
 40
0.5055461695313496
 40
0.5343863274190561
 40
0.5632337011404428
 40
0.5920894293595313
 40
0.6209545008541706
 40
0.6498296558651202
 40
0.6787152404756093
 40
0.7076109980374848
 40
0.7365157801510109
 40
0.7654271623606697
 40
0.7943400780735832
 40
0.823246191227401
 40
0.8521351405445138
 40
0.8809933457779424
 40
0.9098043937353758
 40
0.9385504430815967
 40
0.9672149463283858
 40
0.9957865747531105
 40
1.0
 40
1.0
 40
1.0
 40
1.0
 10
-7.38319171948506
 20
-16.91310469063875
 30
0.0
 10
-7.299526964261552
 20
-16.96043814051529
 30
0.0
 10
-7.057151886862508
 20
-17.09756217257327
 30
0.0
 10
-6.634295478998941
 20
-17.31066221816925
 30
0.0
 10
-6.107624796982858
 20
-17.54537268085435
 30
0.0
 10
-5.5564726309833
 20
-17.75982898610854
 30
0.0
 10
-4.983559999465615
 20
-17.95353228447301
 30
0.0
 10
-4.391023751115922
 20
-18.12568861000089
 30
0.0
 10
-3.781243436567443
 20
-18.27568533595272
 30
0.0
 10
-3.156613323273227
 20
-18.40296436407516
 30
0.0
 10
-2.51959413126568
 20
-18.5070581891108
 30
0.0
 10
-1.872688948767363
 20
-18.58758245826196
 30
0.0
 10
-1.218438672664352
 20
-18.64424004983408
 30
0.0
 10
-0.5594115813574649
 20
-18.67682175354337
 30
0.0
 10
0.1018060060077519
 20
-18.68520742560919
 30
0.0
 10
0.7626175657999955
 20
-18.66936655139247
 30
0.0
 10
1.420427421011235
 20
-18.62935873110386
 30
0.0
 10
2.072652091260871
 20
-18.56533341475993
 30
0.0
 10
2.716732458875832
 20
-18.47752863114156
 30
0.0
 10
3.350142528897283
 20
-18.36626944166752
 30
0.0
 10
3.970397802628704
 20
-18.23196621145332
 30
0.0
 10
4.575064359415975
 20
-18.07511239801784
 30
0.0
 10
5.161767387696002
 20
-17.89628199706941
 30
0.0
 10
5.72819901696687
 20
-17.69612676042756
 30
0.0
 10
6.272125307519002
 20
-17.47537336604559
 30
0.0
 10
6.791392236231868
 20
-17.2348208063687
 30
0.0
 10
7.283930686849407
 20
-16.9753383921672
 30
0.0
 10
7.747760124145794
 20
-16.69786486353523
 30
0.0
 10
8.180988117185144
 20
-16.40341241203283
 30
0.0
 10
8.581807673557988
 20
-16.09307414571581
 30
0.0
 10
8.948520446242426
 20
-15.7680303710582
 30
0.0
 10
9.27950711414084
 20
-15.42955063684504
 30
0.0
 10
9.57340296888689
 20
-15.07901681045159
 30
0.0
 10
9.828526998818422
 20
-14.717870532116
 30
0.0
 10
10.0451088119274
 20
-14.34784432078762
 30
0.0
 10
10.21715823072665
 20
-13.97007626212346
 30
0.0
 10
10.32159719260817
 20
-13.69637163723517
 30
0.0
 10
10.35608317205215
 20
-13.54793410179992
 30
0.0
 10
10.36051519458012
 20
-13.52885740710687
 30
0.0
  0
SPLINE
  5
591
330
58B
100
AcDbEntity
  8
0
  6
Continuous
 62
     7
370
    25
100
AcDbSpline
210
0.0
220
0.0
230
1.0
 70
     8
 71
     3
 72
    19
 73
    15
 74
     0
 42
0.000000001
 43
0.00000001
 40
0.0
 40
0.0
 40
0.0
 40
0.0
 40
0.0572425943577778
 40
0.1491970993016307
 40
0.2412138712173742
 40
0.3335371834444137
 40
0.4263632337902756
 40
0.519816817098044
 40
0.613942448770811
 40
0.7087107902903658
 40
0.8040373130019384
 40
0.899806860013978
 40
0.9958970257951416
 40
0.9999999999999999
 40
0.9999999999999999
 40
0.9999999999999999
 40
0.9999999999999999
 10
10.49499516257413
 20
-22.77651551290046
 30
0.0
 10
10.49595941092706
 20
-22.69361934604745
 30
0.0
 10
10.49847262785717
 20
-22.47755877478137
 30
0.0
 10
10.45558436526885
 20
-22.12917610126272
 30
0.0
 10
10.37182246595318
 20
-21.73381400056822
 30
0.0
 10
10.24539199596368
 20
-21.34305814908562
 30
0.0
 10
10.07886944861798
 20
-20.95808987642692
 30
0.0
 10
9.871987241298752
 20
-20.58019433368073
 30
0.0
 10
9.625493732028474
 20
-20.2107293851555
 30
0.0
 10
9.339749603420492
 20
-19.85139293326534
 30
0.0
 10
9.017010949139259
 20
-19.50311670746278
 30
0.0
 10
8.653983725679327
 20
-19.16996004523724
 30
0.0
 10
8.39254074442023
 20
-18.94839118471307
 30
0.0
 10
8.243773288057394
 20
-18.84310352555345
 30
0.0
 10
8.23768116402511
 20
-18.83879192747716
 30
0.0
  0
SPLINE
  5
592
330
58B
100
AcDbEntity
  8
0
  6
Continuous
 62
     7
370
    25
100
AcDbSpline
210
0.0
220
0.0
230
1.0
 70
     8
 71
     3
 72
    19
 73
    15
 74
     0
 42
0.000000001
 43
0.00000001
 40
0.0
 40
0.0
 40
0.0
 40
0.0
 40
0.0372358990586179
 40
0.1350740801885857
 40
0.2327833158416511
 40
0.3302554882715844
 40
0.4273617109342003
 40
0.5239648966781645
 40
0.6199414813070792
 40
0.7152094134447999
 40
0.8097550937262892
 40
0.9036499941491448
 40
0.9970502638283251
 40
1.0
 40
1.0
 40
1.0
 40
1.0
 10
-8.242765751447594
 20
-18.84668874762879
 30
0.0
 10
-8.296359473432123
 20
-18.88590450383522
 30
0.0
 10
-8.490771932482648
 20
-19.02816056136036
 30
0.0
 10
-8.791598968069216
 20
-19.2907861503838
 30
0.0
 10
-9.143266266575818
 20
-19.6329329520964
 30
0.0
 10
-9.455720354894911
 20
-19.98994032927176
 30
0.0
 10
-9.730017114448431
 20
-20.35879734318704
 30
0.0
 10
-9.964031989627957
 20
-20.73805426364471
 30
0.0
 10
-10.15698938077472
 20
-21.12563830357435
 30
0.0
 10
-10.30763932126431
 20
-21.51951048086797
 30
0.0
 10
-10.41732440252292
 20
-21.91765021685973
 30
0.0
 10
-10.47969686810224
 20
-22.31804044714465
 30
0.0
 10
-10.50583425588486
 20
-22.59026530562436
 30
0.0
 10
-10.49951732310199
 20
-22.72798007438835
 30
0.0
 10
-10.4993239314674
 20
-22.73219618450905
 30
0.0
  0
SPLINE
  5
595
330
58B
100
AcDbEntity
  8
0
  6
Continuous
 62
     7
370
    25
100
AcDbSpline
210
0.0
220
0.0
230
1.0
 70
     8
 71
     3
 72
    17
 73
    13
 74
     0
 42
0.000000001
 43
0.00000001
 40
0.0
 40
0.0
 40
0.0
 40
0.0
 40
0.0665813120197484
 40
0.1816986132324639
 40
0.2972451763230032
 40
0.4132469156095737
 40
0.5296678521640175
 40
0.6464332814399325
 40
0.763453933427718
 40
0.8806442318512931
 40
0.9979324814421721
 40
1.0
 40
1.0
 40
1.0
 40
1.0
 10
8.864952495107575
 20
-20.07540345198991
 30
0.0
 10
8.845540118926596
 20
-20.00665313579573
 30
0.0
 10
8.792564265423074
 20
-19.8190353683947
 30
0.0
 10
8.660779801697943
 20
-19.51858207666629
 30
0.0
 10
8.474419357779068
 20
-19.17523223977346
 30
0.0
 10
8.246681706856096
 20
-18.84038263332858
 30
0.0
 10
7.980962003525728
 20
-18.51526819078899
 30
0.0
 10
7.677487002316085
 20
-18.20176294738398
 30
0.0
 10
7.339078209392171
 20
-17.90068902272066
 30
0.0
 10
6.96284880483025
 20
-17.61620515134047
 30
0.0
 10
6.697030430809009
 20
-17.43027379578085
 30
0.0
 10
6.549124967898554
 20
-17.34451296398037
 30
0.0
 10
6.546562902452414
 20
-17.34302738758945
 30
0.0
  0
SPLINE
  5
596
330
58B
100
AcDbEntity
  8
0
  6
Continuous
 62
     7
370
    25
100
AcDbSpline
210
0.0
220
0.0
230
1.0
 70
     8
 71
     3
 72
    17
 73
    13
 74
     0
 42
0.000000001
 43
0.00000001
 40
0.0
 40
0.0
 40
0.0
 40
0.0
 40
0.0064052405715326
 40
0.1232816489733223
 40
0.2401711035202037
 40
0.3570279963276095
 40
0.4737952316203162
 40
0.5903967924372958
 40
0.7067409123189239
 40
0.8227306089264869
 40
0.9382831705123831
 40
1.0
 40
1.0
 40
1.0
 40
1.0
 10
-6.547673885856099
 20
-17.34433798249582
 30
0.0
 10
-6.555637912330178
 20
-17.3489717097266
 30
0.0
 10
-6.708921509601327
 20
-17.43815704594052
 30
0.0
 10
-6.979719425220723
 20
-17.62808462572176
 30
0.0
 10
-7.355276621076391
 20
-17.91407711586909
 30
0.0
 10
-7.693357107518585
 20
-18.21691153569651
 30
0.0
 10
-7.996509651640221
 20
-18.53269145202279
 30
0.0
 10
-8.261815425661759
 20
-18.86060702945669
 30
0.0
 10
-8.488869413954882
 20
-19.19874512509805
 30
0.0
 10
-8.673784463801809
 20
-19.54569854135357
 30
0.0
 10
-8.802053669455344
 20
-19.84407644289924
 30
0.0
 10
-8.852204420345352
 20
-20.02825364846548
 30
0.0
 10
-8.869664543170906
 20
-20.09237545270141
 30
0.0
  0
LWPOLYLINE
  5
59A
330
58B
100
AcDbEntity
  8
0
  6
Continuous
 62
     7
370
    25
100
AcDbPolyline
 90
        3
 70
   128
 43
0.0
 10
10.3678810321
 20
-13.4939416063
 10
10.3814750955
 20
-13.4435852169
 10
10.4166280455
 20
-13.2977321484
  0
LWPOLYLINE
  5
59E
330
58B
100
AcDbEntity
  8
0
  6
Continuous
 62
     7
370
    25
100
AcDbPolyline
 90
       49
 70
   128
 43
0.0
 10
10.5
 20
-24.4962243566
 10
10.4985340025
 20
-24.5975112902
 10
10.4633705254
 20
-25.0020935279
 10
10.3814750955
 20
-25.4044164312
 10
10.2532134777
 20
-25.8026831282
 10
10.0791585195
 20
-26.1951148631
 10
9.8600875926
 20
-26.5799589407
 10
9.596979121
 20
-26.9554965537
 10
9.2910082109
 20
-27.3200504601
 10
8.9435414027
 20
-27.6719924737
 10
8.5561305675
 20
-28.0097507359
 10
8.1305059762
 20
-28.3318167364
 10
7.6685685715
 20
-28.6367520502
 10
7.1723814779
 20
-28.9231947622
 10
6.6441607876
 20
-29.1898655497
 10
6.0862656623
 20
-29.4355733962
 10
5.501187797
 20
-29.6592209109
 10
4.8915402917
 20
-29.8598092296
 10
4.2600459799
 20
-30.0364424763
 10
3.6095252687
 20
-30.1883317639
 10
2.9428835414
 20
-30.3147987181
 10
2.2630981818
 20
-30.4152785066
 10
1.5732052763
 20
-30.4893223625
 10
0.8762860542
 20
-30.5365995879
 10
0.1754531258
 20
-30.5568990311
 10
-0.5261634188
 20
-30.55013003
 10
-1.2254299898
 20
-30.5163228165
 10
-1.9192234931
 20
-30.4556283819
 10
-2.6044452783
 20
-30.3683178023
 10
-3.2780349787
 20
-30.2547810279
 10
-3.9369841791
 20
-30.1155251415
 10
-4.5783498524
 20
-29.9511720936
 10
-5.1992675039
 20
-29.762455925
 10
-5.7969639646
 20
-29.5502194877
 10
-6.368769777
 20
-29.3154106814
 10
-6.9121311175
 20
-29.059078219
 10
-7.4246212025
 20
-28.7823669436
 10
-7.9039511268
 20
-28.486512715
 10
-8.3479800867
 20
-28.1728368899
 10
-8.754724941
 20
-27.8427404207
 10
-9.1223690686
 20
-27.4976975984
 10
-9.4492704813
 20
-27.139249468
 10
-9.7339691583
 20
-26.7689969458
 10
-9.975193566
 20
-26.3885936695
 10
-10.1718663377
 20
-25.9997386125
 10
-10.3231090851
 20
-25.6041684959
 10
-10.4282463214
 20
-25.2036500317
 10
-10.4868084781
 20
-24.7999720328
 10
-10.5
 20
-24.4962243566
  0
LWPOLYLINE
  5
607
330
58B
100
AcDbEntity
  8
0
  6
Continuous
 62
     8
370
    25
100
AcDbPolyline
 90
       34
 70
   128
 43
0.0
 10
-7.4246212025
 20
-16.8215357293
 10
-6.9121311175
 20
-17.0982470047
 10
-6.368769777
 20
-17.3545794671
 10
-5.7969639646
 20
-17.5893882734
 10
-5.1992675039
 20
-17.8016247107
 10
-4.5783498524
 20
-17.9903408793
 10
-3.9369841791
 20
-18.1546939272
 10
-3.2780349787
 20
-18.2939498136
 10
-2.6044452783
 20
-18.407486588
 10
-1.9192234931
 20
-18.4947971676
 10
-1.2254299898
 20
-18.5554916022
 10
-0.5261634188
 20
-18.5892988157
 10
0.1754531258
 20
-18.5960678168
 10
0.8762860542
 20
-18.5757683736
 10
1.5732052763
 20
-18.5284911482
 10
2.2630981818
 20
-18.4544472924
 10
2.9428835414
 20
-18.3539675038
 10
3.6095252687
 20
-18.2275005496
 10
4.2600459799
 20
-18.075611262
 10
4.8915402917
 20
-17.8989780153
 10
5.501187797
 20
-17.6983896966
 10
6.0862656623
 20
-17.4747421819
 10
6.6441607876
 20
-17.2290343354
 10
7.1723814779
 20
-16.9623635479
 10
7.6685685715
 20
-16.6759208359
 10
8.1305059762
 20
-16.3709855221
 10
8.5561305675
 20
-16.0489195216
 10
8.9435414027
 20
-15.7111612594
 10
9.2910082109
 20
-15.3592192458
 10
9.596979121
 20
-14.9946653394
 10
9.8600875926
 20
-14.6191277264
 10
10.0791585195
 20
-14.2342836488
 10
10.2532134777
 20
-13.8418519139
 10
10.3678810321
 20
-13.4939416063
  0
LWPOLYLINE
  5
609
330
58B
100
AcDbEntity
  8
0
  6
Continuous
 62
     8
370
    25
100
AcDbPolyline
 90
       63
 70
   128
 43
0.0
 10
6.0517577202
 20
-17.558442078
 10
6.2424928401
 20
-17.6821927567
 10
6.6301597808
 20
-17.9636028121
 10
6.9798497668
 20
-18.2611322844
 10
7.2895598054
 20
-18.5730769516
 10
7.5575159055
 20
-18.897650023
 10
7.782183239
 20
-19.2329923734
 10
7.9622749316
 20
-19.5771831922
 10
8.0967594345
 20
-19.9282509856
 10
8.1848664325
 20
-20.284184869
 10
8.2260912569
 20
-20.6429460853
 10
8.2201977755
 20
-21.002479683
 10
8.1672197456
 20
-21.3607262859
 10
8.0674606207
 20
-21.7156338901
 10
7.9214918119
 20
-22.0651696169
 10
7.7301494153
 20
-22.4073313573
 10
7.494529423
 20
-22.7401592399
 10
7.2159814448
 20
-23.0617468567
 10
6.8961009784
 20
-23.3702521829
 10
6.53672027
 20
-23.663908128
 10
6.13989782
 20
-23.9410326574
 10
5.7079065912
 20
-24.2000384267
 10
5.2432209904
 20
-24.4394418745
 10
4.7485026946
 20
-24.6578717194
 10
4.2265854054
 20
-24.8540768151
 10
3.6804586177
 20
-25.0269333165
 10
3.1132504963
 20
-25.1754511173
 10
2.5282099581
 20
-25.298779521
 10
1.9286880622
 20
-25.3962121137
 10
1.3181188157
 20
-25.4671908101
 10
0.699999504
 20
-25.5113090509
 10
0.0778706585
 20
-25.5283141308
 10
-0.5447042231
 20
-25.5181086461
 10
-1.1641590881
 20
-25.480751053
 10
-1.7769457554
 20
-25.4164553323
 10
-2.3795542383
 20
-25.3255897642
 10
-2.96853285
 20
-25.2086748184
 10
-3.5405079744
 20
-25.0663801731
 10
-4.0922033897
 20
-24.8995208791
 10
-4.6204590346
 20
-24.7090526914
 10
-5.1222491085
 20
-24.4960665946
 10
-5.5946994035
 20
-24.2617825536
 10
-6.0351037669
 20
-24.0075425262
 10
-6.4409396024
 20
-23.7348027764
 10
-6.8098823192
 20
-23.4451255326
 10
-7.1398186468
 20
-23.14017004
 10
-7.4288587398
 20
-22.8216830559
 10
-7.6753470026
 20
-22.491488845
 10
-7.8778715729
 20
-22.1514787298
 10
-8.0352724082
 20
-21.8036002574
 10
-8.1466479308
 20
-21.4498460443
 10
-8.2113601919
 20
-21.0922423625
 10
-8.2290385254
 20
-20.7328375335
 10
-8.1995816714
 20
-20.3736901957
 10
-8.1231583562
 20
-20.0168575124
 10
-8.0002063255
 20
-19.6643833891
 10
-7.8314298375
 20
-19.3182867654
 10
-7.6177956286
 20
-18.9805500516
 10
-7.3605273762
 20
-18.653107773
 10
-7.0610986895
 20
-18.3378354892
 10
-6.721224669
 20
-18.0365390514
 10
-6.3428520823
 20
-17.7509442583
 10
-6.0536605271
 20
-17.5596345316
  0
LWPOLYLINE
  5
60B
330
58B
100
AcDbEntity
  8
0
  6
Continuous
 62
     8
370
    25
100
AcDbPolyline
 90
       37
 70
   128
 43
0.0
 10
10.4999104676
 20
-22.7741687315
 10
10.4985340025
 20
-22.8504239198
 10
10.4633705254
 20
-23.2550061576
 10
10.3814750955
 20
-23.6573290608
 10
10.2532134777
 20
-24.0555957578
 10
10.0791585195
 20
-24.4480274928
 10
9.8600875926
 20
-24.8328715703
 10
9.596979121
 20
-25.2084091833
 10
9.2910082109
 20
-25.5729630898
 10
8.9435414027
 20
-25.9249051033
 10
8.5561305675
 20
-26.2626633655
 10
8.1305059762
 20
-26.584729366
 10
7.6685685715
 20
-26.8896646798
 10
7.1723814779
 20
-27.1761073918
 10
6.6441607876
 20
-27.4427781793
 10
6.0862656623
 20
-27.6884860258
 10
5.501187797
 20
-27.9121335405
 10
4.8915402917
 20
-28.1127218593
 10
4.2600459799
 20
-28.2893551059
 10
3.6095252687
 20
-28.4412443935
 10
2.9428835414
 20
-28.5677113477
 10
2.2630981818
 20
-28.6681911363
 10
1.5732052763
 20
-28.7422349922
 10
0.8762860542
 20
-28.7895122175
 10
0.1754531258
 20
-28.8098116607
 10
-0.5261634188
 20
-28.8030426596
 10
-1.2254299898
 20
-28.7692354462
 10
-1.9192234931
 20
-28.7085410116
 10
-2.6044452783
 20
-28.621230432
 10
-3.2780349787
 20
-28.5076936575
 10
-3.9369841791
 20
-28.3684377711
 10
-4.5783498524
 20
-28.2040847232
 10
-5.1992675039
 20
-28.0153685546
 10
-5.7969639646
 20
-27.8031321174
 10
-6.368769777
 20
-27.568323311
 10
-6.9121311175
 20
-27.3119908486
 10
-7.4246212025
 20
-27.0352795733
  0
LWPOLYLINE
  5
60C
330
58B
100
AcDbEntity
  8
0
  6
Continuous
 62
     8
370
    25
100
AcDbPolyline
 90
       45
 70
   128
 43
0.0
 10
-7.1828712107
 20
-26.5084009585
 10
-6.6815704967
 20
-26.7788757923
 10
-6.1497833089
 20
-27.029196603
 10
-5.5899360704
 20
-27.2582212342
 10
-5.0045832357
 20
-27.4649046989
 10
-4.3963956356
 20
-27.648303948
 10
-3.7681482905
 20
-27.8075821727
 10
-3.122707749
 20
-27.942012623
 10
-2.4630190084
 20
-28.0509819236
 10
-1.7920920769
 20
-28.1339928726
 10
-1.1129882402
 20
-28.1906667101
 10
-0.4288060936
 20
-28.2207448463
 10
0.257332597
 20
-28.2240900416
 10
0.9422971379
 20
-28.2006870327
 10
1.6229621931
 20
-28.1506426021
 10
2.296222044
 20
-28.074185091
 10
2.9590047605
 20
-27.9716633576
 10
3.6082862168
 20
-27.843545185
 10
4.2411038908
 20
-27.690415147
 10
4.8545703805
 20
-27.512971941
 10
5.4458865789
 20
-27.3120251994
 10
6.012354446
 20
-27.0884917963
 10
6.5513893187
 20
-26.8433916633
 10
7.0605317046
 20
-26.577843136
 10
7.5374585037
 20
-26.2930578515
 10
7.9799936085
 20
-25.9903352198
 10
8.3861178327
 20
-25.6710564947
 10
8.7539781247
 20
-25.3366784718
 10
9.0818960224
 20
-24.9887268415
 10
9.3683753115
 20
-24.6287892271
 10
9.6121088528
 20
-24.2585079415
 10
9.811984546
 20
-23.8795724931
 10
9.9670904042
 20
-23.4937118777
 10
10.076718715
 20
-23.1026866885
 10
10.1403692694
 20
-22.708281084
 10
10.1577516447
 20
-22.3122946464
 10
10.128786529
 20
-21.916534171
 10
10.0536060835
 20
-21.5228054221
 10
9.9325533394
 20
-21.1329048936
 10
9.7661806325
 20
-20.7486116123
 10
9.5552470833
 20
-20.3716790202
 10
9.3007151333
 20
-20.0038269743
 10
9.0037461534
 20
-19.6467338991
 10
8.6656951449
 20
-19.3020291285
 10
8.3977348989
 20
-19.0624112648
  0
LWPOLYLINE
  5
60D
330
58B
100
AcDbEntity
  8
0
  6
Continuous
 62
     8
370
    25
100
AcDbPolyline
 90
       22
 70
   128
 43
0.0
 10
-8.4325850617
 20
-19.0921675568
 10
-8.5749400598
 20
-19.2179742676
 10
-8.9230277418
 20
-19.5593338429
 10
-9.2304016948
 20
-19.9134805092
 10
-9.495659442
 20
-20.2787983763
 10
-9.717590673
 20
-20.6536205828
 10
-9.8951827666
 20
-21.0362369008
 10
-10.0276254108
 20
-21.4249015398
 10
-10.1143143002
 20
-21.8178411122
 10
-10.1548538933
 20
-22.2132627249
 10
-10.1490592172
 20
-22.6093621597
 10
-10.0969567117
 20
-23.0043321058
 10
-9.9987841085
 20
-23.3963704059
 10
-9.8549893468
 20
-23.7836882792
 10
-9.666228529
 20
-24.164518483
 10
-9.4333629275
 20
-24.5371233764
 10
-9.1574550545
 20
-24.8998028489
 10
-8.8397638146
 20
-25.2509020771
 10
-8.4817387598
 20
-25.5888190758
 10
-8.0850134764
 20
-25.9120120072
 10
-7.651398131
 20
-26.2190062162
 10
-7.1828712107
 20
-26.5084009585
  0
LWPOLYLINE
  5
60E
330
58B
100
AcDbEntity
  8
0
  6
Continuous
 62
     8
370
    25
100
AcDbPolyline
 90
       51
 70
   128
 43
0.0
 10
9.0
 20
-21.1746585319
 10
9.0437554606
 20
-21.3331790354
 10
9.1134750436
 20
-21.7075426882
 10
9.1367544468
 20
-22.0838237833
 10
9.1134750436
 20
-22.4601048783
 10
9.0437554606
 20
-22.8344685311
 10
8.9279509728
 20
-23.2050070703
 10
8.7666516933
 20
-23.5698323165
 10
8.5606795663
 20
-23.9270852039
 10
8.3110841785
 20
-24.2749452536
 10
8.0191374108
 20
-24.6116398504
 10
7.686326957
 20
-24.9354532761
 10
7.3143487429
 20
-25.2447354515
 10
6.9050982841
 20
-25.5379103456
 10
6.4606610274
 20
-25.8134840063
 10
5.9833017229
 20
-26.0700521734
 10
5.4754528844
 20
-26.3063074344
 10
4.939702393
 20
-26.5210458866
 10
4.3787803105
 20
-26.713173272
 10
3.7955449673
 20
-26.8817105536
 10
3.1929683969
 20
-27.025798904
 10
2.5741211915
 20
-27.144704082
 10
1.9421568546
 20
-27.237820174
 10
1.3002957314
 20
-27.3046726818
 10
0.6518085993
 20
-27.3449209403
 10
0.0
 20
-27.3583598537
 10
-0.6518085993
 20
-27.3449209403
 10
-1.3002957314
 20
-27.3046726818
 10
-1.9421568546
 20
-27.237820174
 10
-2.5741211915
 20
-27.144704082
 10
-3.1929683969
 20
-27.025798904
 10
-3.7955449673
 20
-26.8817105536
 10
-4.3787803105
 20
-26.713173272
 10
-4.939702393
 20
-26.5210458866
 10
-5.4754528844
 20
-26.3063074344
 10
-5.9833017229
 20
-26.0700521734
 10
-6.4606610274
 20
-25.8134840063
 10
-6.9050982841
 20
-25.5379103456
 10
-7.3143487429
 20
-25.2447354515
 10
-7.686326957
 20
-24.9354532761
 10
-8.0191374108
 20
-24.6116398504
 10
-8.3110841785
 20
-24.2749452536
 10
-8.5606795663
 20
-23.9270852039
 10
-8.7666516933
 20
-23.5698323165
 10
-8.9279509728
 20
-23.2050070703
 10
-9.0437554606
 20
-22.8344685311
 10
-9.1134750436
 20
-22.4601048783
 10
-9.1367544468
 20
-22.0838237833
 10
-9.1134750436
 20
-21.7075426882
 10
-9.0437554606
 20
-21.3331790354
 10
-9.0
 20
-21.1746585319
  0
LWPOLYLINE
  5
610
330
58B
100
AcDbEntity
  8
0
  6
Continuous
 62
     8
370
    25
100
AcDbPolyline
 90
       32
 70
   128
 43
0.0
 10
8.8817563055
 20
-21.813511717
 10
8.8387531447
 20
-21.9531625571
 10
8.6933324366
 20
-22.3187955177
 10
8.5025887185
 20
-22.677417744
 10
8.2675164399
 20
-23.0271595458
 10
7.9893411587
 20
-23.3661975311
 10
7.669513152
 20
-23.692764113
 10
7.309699855
 20
-24.0051567245
 10
6.9117771677
 20
-24.3017466952
 10
6.4778196745
 20
-24.5809877423
 10
6.0100898291
 20
-24.8414240323
 10
5.5110261582
 20
-25.0816977709
 10
4.9832305487
 20
-25.3005562821
 10
4.4294546825
 20
-25.4968585391
 10
3.8525856906
 20
-25.6695811127
 10
3.2556311008
 20
-25.8178235074
 10
2.6417031579
 20
-25.9408128559
 10
2.014002598
 20
-26.0379079489
 10
1.3758019611
 20
-26.1086025774
 10
0.7304285297
 20
-26.1525281724
 10
0.0812469823
 20
-26.1694557261
 10
-0.5683581493
 20
-26.1592969862
 10
-1.2150001247
 20
-26.1221049155
 10
-1.855307652
 20
-26.0580734164
 10
-2.4859424643
 20
-25.9675363194
 10
-3.1036167237
 20
-25.850965643
 10
-3.7051101625
 20
-25.7089691328
 10
-4.2872868726
 20
-25.5422870927
 10
-4.847111654
 20
-25.3517885259
 10
-5.3816658397
 20
-25.1384666036
 10
-5.8881625117
 20
-24.9034334874
 10
-6.3639610307
 20
-24.6479145314
  0
LWPOLYLINE
  5
611
330
58B
100
AcDbEntity
  8
0
  6
Continuous
 62
     8
370
    25
100
AcDbPolyline
 90
       44
 70
   128
 43
0.0
 10
-6.2324047296
 20
-24.4090583434
 10
-5.7608420973
 20
-24.6620893531
 10
-5.2585428799
 20
-24.8945740294
 10
-4.728187061
 20
-25.105271966
 10
-4.1726043184
 20
-25.2930589983
 10
-3.5947589264
 20
-25.4569332013
 10
-2.9977339402
 20
-25.596020235
 10
-2.3847147463
 20
-25.7095780101
 10
-1.7589720675
 20
-25.7970006466
 10
-1.1238445116
 20
-25.857821707
 10
-0.482720759
 20
-25.8917166846
 10
0.1609785177
 20
-25.898504735
 10
0.8038189044
 20
-25.8781496411
 10
1.4423705694
 20
-25.830760006
 10
2.0732265634
 20
-25.756588674
 10
2.6930209966
 20
-25.6560313813
 10
3.2984469976
 20
-25.5296246444
 10
3.8862743567
 20
-25.3780428981
 10
4.4533667606
 20
-25.2020948964
 10
4.9966985261
 20
-25.0027193983
 10
5.5133707429
 20
-24.7809801581
 10
6.0006267414
 20
-24.5380602507
 10
6.4558667998
 20
-24.2752557589
 10
6.8766620157
 20
-23.9939688583
 10
7.2607672643
 20
-23.6957003364
 10
7.606133178
 20
-23.3820415846
 10
7.9109170803
 20
-23.0546661082
 10
8.1734928171
 20
-22.715320597
 10
8.3924594332
 20
-22.365815606
 10
8.5666486471
 20
-22.0080158957
 10
8.6951310839
 20
-21.6438304823
 10
8.7772212343
 20
-21.2752024525
 10
8.8124811116
 20
-20.9040985965
 10
8.8007225894
 20
-20.5324989138
 10
8.7420084042
 20
-20.1623860495
 10
8.6366518219
 20
-19.7957347158
 10
8.4852149652
 20
-19.4345011564
 10
8.2885058153
 20
-19.0806127085
 10
8.0475739007
 20
-18.7359575202
 10
7.7637046974
 20
-18.4023744759
 10
7.4384127703
 20
-18.0816433855
 10
7.0734336928
 20
-17.7754754882
 10
6.670714786
 20
-17.4855043222
 10
6.4896218152
 20
-17.3681632589
  0
LWPOLYLINE
  5
612
330
58B
100
AcDbEntity
  8
0
  6
Continuous
 62
     8
370
    25
100
AcDbPolyline
 90
       22
 70
   128
 43
0.0
 10
-6.4905621039
 20
-17.3687539989
 10
-6.8766620157
 20
-17.6283664942
 10
-7.2607672643
 20
-17.9266350162
 10
-7.606133178
 20
-18.240293768
 10
-7.9109170803
 20
-18.5676692444
 10
-8.1734928171
 20
-18.9070147556
 10
-8.3924594332
 20
-19.2565197466
 10
-8.5666486471
 20
-19.6143194569
 10
-8.6951310839
 20
-19.9785048703
 10
-8.7772212343
 20
-20.3471329
 10
-8.8124811116
 20
-20.7182367561
 10
-8.8007225894
 20
-21.0898364388
 10
-8.7420084042
 20
-21.4599493031
 10
-8.6366518219
 20
-21.8266006367
 10
-8.4852149652
 20
-22.1878341962
 10
-8.2885058153
 20
-22.541722644
 10
-8.0475739007
 20
-22.8863778324
 10
-7.7637046974
 20
-23.2199608767
 10
-7.4384127703
 20
-23.5406919671
 10
-7.0734336928
 20
-23.8468598644
 10
-6.670714786
 20
-24.1368310303
 10
-6.2324047296
 20
-24.4090583434
  0
LWPOLYLINE
  5
613
330
58B
100
AcDbEntity
  8
0
  6
Continuous
 62
     8
370
    25
100
AcDbPolyline
 90
       42
 70
   128
 43
0.0
 10
-8.9056230881
 20
-22.6793428638
 10
-8.8679325013
 20
-22.8156996444
 10
-8.7339703343
 20
-23.1827886491
 10
-8.5544732901
 20
-23.5433404385
 10
-8.3303771831
 20
-23.8954752624
 10
-8.0628503468
 20
-24.2373572529
 10
-7.7532875422
 20
-24.5672039956
 10
-7.4033026864
 20
-24.8832958224
 10
-7.0147204384
 20
-25.1839847768
 10
-6.5895666861
 20
-25.4677032058
 10
-6.1300579842
 20
-25.732971933
 10
-5.6385899985
 20
-25.97840797
 10
-5.1177250154
 20
-26.2027317269
 10
-4.5701785838
 20
-26.4047736836
 10
-3.9988053572
 20
-26.5834804868
 10
-3.406584211
 20
-26.737920442
 10
-2.7966027122
 20
-26.8672883709
 10
-2.1720410217
 20
-26.9709098089
 10
-1.5361553151
 20
-27.0482445218
 10
-0.8922608059
 20
-27.0988893223
 10
-0.2437144621
 20
-27.1225801717
 10
0.4061024961
 20
-27.1191935571
 10
1.0538022239
 20
-27.0887471346
 10
1.6960079149
 20
-27.0313996378
 10
2.3293714059
 20
-26.9474500499
 10
2.950590633
 20
-26.8373360453
 10
3.5564268468
 20
-26.7016317074
 10
4.1437214977
 20
-26.5410445357
 10
4.7094127034
 20
-26.3564117575
 10
5.250551212
 20
-26.1486959625
 10
5.7643157777
 20
-25.9189800847
 10
6.24802787
 20
-25.6684617564
 10
6.6991656381
 20
-25.398447064
 10
7.1153770584
 20
-25.1103437393
 10
7.4944921975
 20
-24.8056538194
 10
7.8345345245
 20
-24.4859658166
 10
8.1337312161
 20
-24.1529464361
 10
8.3905223994
 20
-23.8083318868
 10
8.603569284
 20
-23.4539188292
 10
8.7717611422
 20
-23.0915550091
 10
8.8942210993
 20
-22.7231296236
 10
8.915185595
 20
-22.6404990714
  0
LINE
  5
614
330
58B
100
AcDbEntity
  8
0
  6
Continuous
 62
     7
370
    25
100
AcDbLine
 10
10.5
 20
-24.4962243566
 30
0.0
 11
10.5
 21
-22.7491369862
 31
0.0
  0
LINE
  5
615
330
58B
100
AcDbEntity
  8
0
  6
Continuous
 62
     7
370
    25
100
AcDbLine
 10
-10.5
 20
-22.7491369862
 30
0.0
 11
-10.5
 21
-24.4962243566
 31
0.0
  0
LINE
  5
616
330
58B
100
AcDbEntity
  8
0
  6
Continuous
 62
     7
370
    25
100
AcDbLine
 10
9.0
 20
-21.9288960572
 30
0.0
 11
9.0
 21
-20.9740780282
 31
0.0
  0
LINE
  5
617
330
58B
100
AcDbEntity
  8
0
  6
Continuous
 62
     7
370
    25
100
AcDbLine
 10
-9.0
 20
-20.9740780282
 30
0.0
 11
-9.0
 21
-21.9288960572
 31
0.0
  0
LINE
  5
618
330
58B
100
AcDbEntity
  8
0
  6
Continuous
 62
     7
370
    25
100
AcDbLine
 10
-10.4166280455
 20
-13.2977321484
 30
0.0
 11
-10.3654248115
 21
-13.5027538148
 31
0.0
  0
LINE
  5
619
330
58B
100
AcDbEntity
  8
0
  6
Continuous
 62
     7
370
    25
100
AcDbLine
 10
-10.5
 20
-22.7491369862
 30
0.0
 11
-10.4999656717
 21
-22.7336371376
 31
0.0
  0
LINE
  5
61A
330
58B
100
AcDbEntity
  8
0
  6
Continuous
 62
     7
370
    25
100
AcDbLine
 10
10.5
 20
-22.7491369862
 30
0.0
 11
10.4999104676
 21
-22.7741687315
 31
0.0
  0
LINE
  5
61B
330
58B
100
AcDbEntity
  8
0
  6
Continuous
 62
     7
370
    25
100
AcDbLine
 10
-8.0233903982
 20
-1.898464958
 30
0.0
 11
0.0
 21
-3.1395532831
 31
0.0
  0
LINE
  5
61C
330
58B
100
AcDbEntity
  8
0
  6
Continuous
 62
     7
370
    25
100
AcDbLine
 10
-2.8804538186
 20
4.4091876496
 30
0.0
 11
-8.0233903982
 21
-1.898464958
 31
0.0
  0
LINE
  5
61D
330
58B
100
AcDbEntity
  8
0
  6
Continuous
 62
     7
370
    25
100
AcDbLine
 10
-2.8804538186
 20
4.4091876496
 30
0.0
 11
0.0
 21
-3.1395532831
 31
0.0
  0
LINE
  5
61E
330
58B
100
AcDbEntity
  8
0
  6
Continuous
 62
     7
370
    25
100
AcDbLine
 10
0.0
 20
-3.1395532831
 30
0.0
 11
8.0233903982
 21
-1.898464958
 31
0.0
  0
LINE
  5
61F
330
58B
100
AcDbEntity
  8
0
  6
Continuous
 62
     7
370
    25
100
AcDbLine
 10
2.8804538186
 20
4.4091876496
 30
0.0
 11
0.0
 21
-3.1395532831
 31
0.0
  0
LINE
  5
620
330
58B
100
AcDbEntity
  8
0
  6
Continuous
 62
     7
370
    25
100
AcDbLine
 10
2.8804538186
 20
4.4091876496
 30
0.0
 11
8.0233903982
 21
-1.898464958
 31
0.0
  0
LINE
  5
621
330
58B
100
AcDbEntity
  8
0
  6
Continuous
 62
     7
370
    25
100
AcDbLine
 10
4.4881489732
 20
-9.6695691774
 30
0.0
 11
0.0
 21
-3.1395532831
 31
0.0
  0
LINE
  5
622
330
58B
100
AcDbEntity
  8
0
  6
Continuous
 62
     7
370
    25
100
AcDbLine
 10
4.4881489732
 20
-9.6695691774
 30
0.0
 11
-4.4881489732
 21
-9.6695691774
 31
0.0
  0
LINE
  5
623
330
58B
100
AcDbEntity
  8
0
  6
Continuous
 62
     7
370
    25
100
AcDbLine
 10
-4.4881489732
 20
-9.6695691774
 30
0.0
 11
0.0
 21
-3.1395532831
 31
0.0
  0
LINE
  5
624
330
58B
100
AcDbEntity
  8
0
  6
Continuous
 62
     7
370
    25
100
AcDbLine
 10
0.0
 20
13.4729233961
 30
0.0
 11
2.8804538186
 21
4.4091876496
 31
0.0
  0
LINE
  5
625
330
58B
100
AcDbEntity
  8
0
  6
Continuous
 62
     7
370
    25
100
AcDbLine
 10
-2.8804538186
 20
4.4091876496
 30
0.0
 11
2.8804538186
 21
4.4091876496
 31
0.0
  0
LINE
  5
626
330
58B
100
AcDbEntity
  8
0
  6
Continuous
 62
     7
370
    25
100
AcDbLine
 10
0.0
 20
13.4729233961
 30
0.0
 11
-2.8804538186
 21
4.4091876496
 31
0.0
  0
LINE
  5
627
330
58B
100
AcDbEntity
  8
0
  6
Continuous
 62
     7
370
    25
100
AcDbLine
 10
-4.4881489732
 20
-9.6695691774
 30
0.0
 11
-8.0233903982
 21
-1.898464958
 31
0.0
  0
LINE
  5
628
330
58B
100
AcDbEntity
  8
0
  6
Continuous
 62
     7
370
    25
100
AcDbLine
 10
4.4881489732
 20
-9.6695691774
 30
0.0
 11
8.0233903982
 21
-1.898464958
 31
0.0
  0
LINE
  5
629
330
58B
100
AcDbEntity
  8
0
  6
Continuous
 62
     7
370
    25
100
AcDbLine
 10
-7.8695461814
 20
6.0720382443
 30
0.0
 11
-2.8804538186
 21
4.4091876496
 31
0.0
  0
LINE
  5
62A
330
58B
100
AcDbEntity
  8
0
  6
Continuous
 62
     7
370
    25
100
AcDbLine
 10
-7.8695461814
 20
6.0720382443
 30
0.0
 11
-8.0233903982
 21
-1.898464958
 31
0.0
  0
LINE
  5
62B
330
58B
100
AcDbEntity
  8
0
  6
Continuous
 62
     7
370
    25
100
AcDbLine
 10
2.8804538186
 20
4.4091876496
 30
0.0
 11
7.8695461814
 21
6.0720382443
 31
0.0
  0
LINE
  5
62C
330
58B
100
AcDbEntity
  8
0
  6
Continuous
 62
     7
370
    25
100
AcDbLine
 10
7.8695461814
 20
6.0720382443
 30
0.0
 11
8.0233903982
 21
-1.898464958
 31
0.0
  0
LINE
  5
62D
330
58B
100
AcDbEntity
  8
0
  6
Continuous
 62
     7
370
    25
100
AcDbLine
 10
-4.4881489732
 20
-9.6695691774
 30
0.0
 11
-12.2618510268
 21
-7.0786159252
 31
0.0
  0
LINE
  5
62E
330
58B
100
AcDbEntity
  8
0
  6
Continuous
 62
     7
370
    25
100
AcDbLine
 10
-12.2618510268
 20
-7.0786159252
 30
0.0
 11
-8.0233903982
 21
-1.898464958
 31
0.0
  0
LINE
  5
62F
330
58B
100
AcDbEntity
  8
0
  6
Continuous
 62
     7
370
    25
100
AcDbLine
 10
12.2618510268
 20
-7.0786159252
 30
0.0
 11
8.0233903982
 21
-1.898464958
 31
0.0
  0
LINE
  5
630
330
58B
100
AcDbEntity
  8
0
  6
Continuous
 62
     7
370
    25
100
AcDbLine
 10
12.2618510268
 20
-7.0786159252
 30
0.0
 11
4.4881489732
 21
-9.6695691774
 31
0.0
  0
LINE
  5
631
330
58B
100
AcDbEntity
  8
0
  6
Continuous
 62
     7
370
    25
100
AcDbLine
 10
0.0
 20
13.4729233961
 30
0.0
 11
-7.8695461814
 21
6.0720382443
 31
0.0
  0
LINE
  5
632
330
58B
100
AcDbEntity
  8
0
  6
Continuous
 62
     7
370
    25
100
AcDbLine
 10
0.0
 20
13.4729233961
 30
0.0
 11
7.8695461814
 21
6.0720382443
 31
0.0
  0
LINE
  5
633
330
58B
100
AcDbEntity
  8
0
  6
Continuous
 62
     7
370
    25
100
AcDbLine
 10
-13.8969198186
 20
1.492251403
 30
0.0
 11
-8.0233903982
 21
-1.898464958
 31
0.0
  0
LINE
  5
634
330
58B
100
AcDbEntity
  8
0
  6
Continuous
 62
     7
370
    25
100
AcDbLine
 10
-7.8695461814
 20
6.0720382443
 30
0.0
 11
-13.8969198186
 21
1.492251403
 31
0.0
  0
LINE
  5
635
330
58B
100
AcDbEntity
  8
0
  6
Continuous
 62
     7
370
    25
100
AcDbLine
 10
8.0233903982
 20
-1.898464958
 30
0.0
 11
13.8969198186
 21
1.492251403
 31
0.0
  0
LINE
  5
636
330
58B
100
AcDbEntity
  8
0
  6
Continuous
 62
     7
370
    25
100
AcDbLine
 10
7.8695461814
 20
6.0720382443
 30
0.0
 11
13.8969198186
 21
1.492251403
 31
0.0
  0
LINE
  5
637
330
58B
100
AcDbEntity
  8
0
  6
Continuous
 62
     7
370
    25
100
AcDbLine
 10
4.4881489732
 20
-9.6695691774
 30
0.0
 11
0.0
 21
-15.3876654614
 31
0.0
  0
LINE
  5
638
330
58B
100
AcDbEntity
  8
0
  6
Continuous
 62
     7
370
    25
100
AcDbLine
 10
-4.4881489732
 20
-9.6695691774
 30
0.0
 11
0.0
 21
-15.3876654614
 31
0.0
  0
LINE
  5
639
330
58B
100
AcDbEntity
  8
0
  6
Continuous
 62
     7
370
    25
100
AcDbLine
 10
-12.2618510268
 20
-7.0786159252
 30
0.0
 11
-13.8969198186
 21
1.492251403
 31
0.0
  0
LINE
  5
63A
330
58B
100
AcDbEntity
  8
0
  6
Continuous
 62
     7
370
    25
100
AcDbLine
 10
12.2618510268
 20
-7.0786159252
 30
0.0
 11
13.8969198186
 21
1.492251403
 31
0.0
  0
LINE
  5
63B
330
58B
100
AcDbEntity
  8
0
  6
Continuous
 62
     7
370
    25
100
AcDbLine
 10
-10.75
 20
8.9521799598
 30
0.0
 11
-7.8695461814
 21
6.0720382443
 31
0.0
  0
LINE
  5
63C
330
58B
100
AcDbEntity
  8
0
  6
Continuous
 62
     7
370
    25
100
AcDbLine
 10
-13.8969198186
 20
1.492251403
 30
0.0
 11
-10.75
 21
8.9521799598
 31
0.0
  0
LINE
  5
63D
330
58B
100
AcDbEntity
  8
0
  6
Continuous
 62
     7
370
    25
100
AcDbLine
 10
7.8695461814
 20
6.0720382443
 30
0.0
 11
10.75
 21
8.9521799598
 31
0.0
  0
LINE
  5
63E
330
58B
100
AcDbEntity
  8
0
  6
Continuous
 62
     7
370
    25
100
AcDbLine
 10
10.75
 20
8.9521799598
 30
0.0
 11
13.8969198186
 21
1.492251403
 31
0.0
  0
LINE
  5
63F
330
58B
100
AcDbEntity
  8
0
  6
Continuous
 62
     7
370
    25
100
AcDbLine
 10
0.0
 20
13.4729233961
 30
0.0
 11
-10.75
 21
8.9521799598
 31
0.0
  0
LINE
  5
640
330
58B
100
AcDbEntity
  8
0
  6
Continuous
 62
     7
370
    25
100
AcDbLine
 10
0.0
 20
13.4729233961
 30
0.0
 11
10.75
 21
8.9521799598
 31
0.0
  0
LINE
  5
641
330
58B
100
AcDbEntity
  8
0
  6
Continuous
 62
     7
370
    25
100
AcDbLine
 10
-8.0233903982
 20
-14.1465771363
 30
0.0
 11
0.0
 21
-15.3876654614
 31
0.0
  0
LINE
  5
642
330
58B
100
AcDbEntity
  8
0
  6
Continuous
 62
     7
370
    25
100
AcDbLine
 10
-4.4881489732
 20
-9.6695691774
 30
0.0
 11
-8.0233903982
 21
-14.1465771363
 31
0.0
  0
LINE
  5
643
330
58B
100
AcDbEntity
  8
0
  6
Continuous
 62
     7
370
    25
100
AcDbLine
 10
0.0
 20
-15.3876654614
 30
0.0
 11
8.0233903982
 21
-14.1465771363
 31
0.0
  0
LINE
  5
644
330
58B
100
AcDbEntity
  8
0
  6
Continuous
 62
     7
370
    25
100
AcDbLine
 10
4.4881489732
 20
-9.6695691774
 30
0.0
 11
8.0233903982
 21
-14.1465771363
 31
0.0
  0
LINE
  5
645
330
58B
100
AcDbEntity
  8
0
  6
Continuous
 62
     7
370
    25
100
AcDbLine
 10
-10.75
 20
12.2778811492
 30
0.0
 11
-10.75
 21
8.9521799598
 31
0.0
  0
LINE
  5
646
330
58B
100
AcDbEntity
  8
0
  6
Continuous
 62
     7
370
    25
100
AcDbLine
 10
0.0
 20
13.4729233961
 30
0.0
 11
-10.75
 21
12.2778811492
 31
0.0
  0
LINE
  5
647
330
58B
100
AcDbEntity
  8
0
  6
Continuous
 62
     7
370
    25
100
AcDbLine
 10
0.0
 20
13.4729233961
 30
0.0
 11
10.75
 21
12.2778811492
 31
0.0
  0
LINE
  5
648
330
58B
100
AcDbEntity
  8
0
  6
Continuous
 62
     7
370
    25
100
AcDbLine
 10
10.75
 20
8.9521799598
 30
0.0
 11
10.75
 21
12.2778811492
 31
0.0
  0
LINE
  5
649
330
58B
100
AcDbEntity
  8
0
  6
Continuous
 62
     7
370
    25
100
AcDbLine
 10
-12.2618510268
 20
-7.0786159252
 30
0.0
 11
-8.0233903982
 21
-14.1465771363
 31
0.0
  0
LINE
  5
64A
330
58B
100
AcDbEntity
  8
0
  6
Continuous
 62
     7
370
    25
100
AcDbLine
 10
12.2618510268
 20
-7.0786159252
 30
0.0
 11
8.0233903982
 21
-14.1465771363
 31
0.0
  0
LINE
  5
64B
330
58B
100
AcDbEntity
  8
0
  6
Continuous
 62
     7
370
    25
100
AcDbLine
 10
-12.2618510268
 20
-7.0786159252
 30
0.0
 11
-16.75
 21
-2.5909532523
 31
0.0
  0
LINE
  5
64C
330
58B
100
AcDbEntity
  8
0
  6
Continuous
 62
     7
370
    25
100
AcDbLine
 10
-13.8969198186
 20
1.492251403
 30
0.0
 11
-16.75
 21
-2.5909532523
 31
0.0
  0
LINE
  5
64D
330
58B
100
AcDbEntity
  8
0
  6
Continuous
 62
     7
370
    25
100
AcDbLine
 10
16.75
 20
-2.5909532522
 30
0.0
 11
13.8969198186
 21
1.492251403
 31
0.0
  0
LINE
  5
64E
330
58B
100
AcDbEntity
  8
0
  6
Continuous
 62
     7
370
    25
100
AcDbLine
 10
16.75
 20
-2.5909532522
 30
0.0
 11
12.2618510268
 21
-7.0786159252
 31
0.0
  0
LINE
  5
64F
330
58B
100
AcDbEntity
  8
0
  6
Continuous
 62
     7
370
    25
100
AcDbLine
 10
-16.0467807964
 20
6.1240560891
 30
0.0
 11
-13.8969198186
 21
1.492251403
 31
0.0
  0
LINE
  5
650
330
58B
100
AcDbEntity
  8
0
  6
Continuous
 62
     7
370
    25
100
AcDbLine
 10
-16.0467807964
 20
6.1240560891
 30
0.0
 11
-10.75
 21
8.9521799598
 31
0.0
  0
LINE
  5
651
330
58B
100
AcDbEntity
  8
0
  6
Continuous
 62
     7
370
    25
100
AcDbLine
 10
13.8969198186
 20
1.492251403
 30
0.0
 11
16.0467807964
 21
6.1240560891
 31
0.0
  0
LINE
  5
652
330
58B
100
AcDbEntity
  8
0
  6
Continuous
 62
     7
370
    25
100
AcDbLine
 10
10.75
 20
8.9521799598
 30
0.0
 11
16.0467807964
 21
6.1240560891
 31
0.0
  0
LINE
  5
653
330
58B
100
AcDbEntity
  8
0
  6
Continuous
 62
     7
370
    25
100
AcDbLine
 10
-7.8695461814
 20
15.1580228647
 30
0.0
 11
-10.75
 21
12.2778811492
 31
0.0
  0
LINE
  5
654
330
58B
100
AcDbEntity
  8
0
  6
Continuous
 62
     7
370
    25
100
AcDbLine
 10
0.0
 20
13.4729233961
 30
0.0
 11
-7.8695461814
 21
15.1580228647
 31
0.0
  0
LINE
  5
655
330
58B
100
AcDbEntity
  8
0
  6
Continuous
 62
     7
370
    25
100
AcDbLine
 10
0.0
 20
13.4729233961
 30
0.0
 11
7.8695461814
 21
15.1580228647
 31
0.0
  0
LINE
  5
656
330
58B
100
AcDbEntity
  8
0
  6
Continuous
 62
     7
370
    25
100
AcDbLine
 10
10.75
 20
12.2778811492
 30
0.0
 11
7.8695461814
 21
15.1580228647
 31
0.0
  0
LINE
  5
657
330
58B
100
AcDbEntity
  8
0
  6
Continuous
 62
     7
370
    25
100
AcDbLine
 10
-13.8969198186
 20
-10.7558607753
 30
0.0
 11
-8.0233903982
 21
-14.1465771363
 31
0.0
  0
LINE
  5
658
330
58B
100
AcDbEntity
  8
0
  6
Continuous
 62
     7
370
    25
100
AcDbLine
 10
-12.2618510268
 20
-7.0786159252
 30
0.0
 11
-13.8969198186
 21
-10.7558607753
 31
0.0
  0
LINE
  5
659
330
58B
100
AcDbEntity
  8
0
  6
Continuous
 62
     7
370
    25
100
AcDbLine
 10
8.0233903982
 20
-14.1465771363
 30
0.0
 11
13.8969198186
 21
-10.7558607753
 31
0.0
  0
LINE
  5
65A
330
58B
100
AcDbEntity
  8
0
  6
Continuous
 62
     7
370
    25
100
AcDbLine
 10
12.2618510268
 20
-7.0786159252
 30
0.0
 11
13.8969198186
 21
-10.7558607753
 31
0.0
  0
LINE
  5
65B
330
58B
100
AcDbEntity
  8
0
  6
Continuous
 62
     7
370
    25
100
AcDbLine
 10
-2.8804538186
 20
-16.8208734594
 30
0.0
 11
-8.0233903982
 21
-14.1465771363
 31
0.0
  0
LINE
  5
65C
330
58B
100
AcDbEntity
  8
0
  6
Continuous
 62
     7
370
    25
100
AcDbLine
 10
-2.8804538186
 20
-16.8208734594
 30
0.0
 11
0.0
 21
-15.3876654614
 31
0.0
  0
LINE
  5
65D
330
58B
100
AcDbEntity
  8
0
  6
Continuous
 62
     7
370
    25
100
AcDbLine
 10
2.8804538186
 20
-16.8208734594
 30
0.0
 11
0.0
 21
-15.3876654614
 31
0.0
  0
LINE
  5
65E
330
58B
100
AcDbEntity
  8
0
  6
Continuous
 62
     7
370
    25
100
AcDbLine
 10
2.8804538186
 20
-16.8208734594
 30
0.0
 11
8.0233903982
 21
-14.1465771363
 31
0.0
  0
LINE
  5
65F
330
58B
100
AcDbEntity
  8
0
  6
Continuous
 62
     7
370
    25
100
AcDbLine
 10
-16.0467807964
 20
6.1240560891
 30
0.0
 11
-16.75
 21
-2.5909532523
 31
0.0
  0
LINE
  5
660
330
58B
100
AcDbEntity
  8
0
  6
Continuous
 62
     7
370
    25
100
AcDbLine
 10
16.75
 20
-2.5909532522
 30
0.0
 11
16.0467807964
 21
6.1240560891
 31
0.0
  0
LINE
  5
661
330
58B
100
AcDbEntity
  8
0
  6
Continuous
 62
     7
370
    25
100
AcDbLine
 10
-16.0467807964
 20
6.1240560891
 30
0.0
 11
-10.75
 21
12.2778811492
 31
0.0
  0
LINE
  5
662
330
58B
100
AcDbEntity
  8
0
  6
Continuous
 62
     7
370
    25
100
AcDbLine
 10
10.75
 20
12.2778811492
 30
0.0
 11
16.0467807964
 21
6.1240560891
 31
0.0
  0
LINE
  5
663
330
58B
100
AcDbEntity
  8
0
  6
Continuous
 62
     7
370
    25
100
AcDbLine
 10
-13.8969198186
 20
-10.7558607753
 30
0.0
 11
-16.75
 21
-2.5909532523
 31
0.0
  0
LINE
  5
664
330
58B
100
AcDbEntity
  8
0
  6
Continuous
 62
     7
370
    25
100
AcDbLine
 10
16.75
 20
-2.5909532522
 30
0.0
 11
13.8969198186
 21
-10.7558607753
 31
0.0
  0
LINE
  5
665
330
58B
100
AcDbEntity
  8
0
  6
Continuous
 62
     7
370
    25
100
AcDbLine
 10
-2.8804538186
 20
16.8208734594
 30
0.0
 11
-7.8695461814
 21
15.1580228647
 31
0.0
  0
LINE
  5
666
330
58B
100
AcDbEntity
  8
0
  6
Continuous
 62
     7
370
    25
100
AcDbLine
 10
0.0
 20
13.4729233961
 30
0.0
 11
-2.8804538186
 21
16.8208734594
 31
0.0
  0
LINE
  5
667
330
58B
100
AcDbEntity
  8
0
  6
Continuous
 62
     7
370
    25
100
AcDbLine
 10
2.8804538186
 20
16.8208734594
 30
0.0
 11
-2.8804538186
 21
16.8208734594
 31
0.0
  0
LINE
  5
668
330
58B
100
AcDbEntity
  8
0
  6
Continuous
 62
     7
370
    25
100
AcDbLine
 10
0.0
 20
13.4729233961
 30
0.0
 11
2.8804538186
 21
16.8208734594
 31
0.0
  0
LINE
  5
669
330
58B
100
AcDbEntity
  8
0
  6
Continuous
 62
     7
370
    25
100
AcDbLine
 10
7.8695461814
 20
15.1580228647
 30
0.0
 11
2.8804538186
 21
16.8208734594
 31
0.0
  0
LINE
  5
66A
330
58B
100
AcDbEntity
  8
0
  6
Continuous
 62
     7
370
    25
100
AcDbLine
 10
-2.8804538186
 20
-16.8208734594
 30
0.0
 11
2.8804538186
 21
-16.8208734594
 31
0.0
  0
LINE
  5
66B
330
58B
100
AcDbEntity
  8
0
  6
Continuous
 62
     7
370
    25
100
AcDbLine
 10
-13.8969198186
 20
10.7558607753
 30
0.0
 11
-16.0467807964
 21
6.1240560891
 31
0.0
  0
LINE
  5
66C
330
58B
100
AcDbEntity
  8
0
  6
Continuous
 62
     7
370
    25
100
AcDbLine
 10
-13.8969198186
 20
10.7558607753
 30
0.0
 11
-10.75
 21
12.2778811492
 31
0.0
  0
LINE
  5
66D
330
58B
100
AcDbEntity
  8
0
  6
Continuous
 62
     7
370
    25
100
AcDbLine
 10
16.0467807964
 20
6.1240560891
 30
0.0
 11
13.8969198186
 21
10.7558607753
 31
0.0
  0
LINE
  5
66E
330
58B
100
AcDbEntity
  8
0
  6
Continuous
 62
     7
370
    25
100
AcDbLine
 10
10.75
 20
12.2778811492
 30
0.0
 11
13.8969198186
 21
10.7558607753
 31
0.0
  0
LINE
  5
66F
330
58B
100
AcDbEntity
  8
0
  6
Continuous
 62
     7
370
    25
100
AcDbLine
 10
-16.75
 20
-2.5909532523
 30
0.0
 11
-16.75
 21
2.5909532522
 31
0.0
  0
LINE
  5
670
330
58B
100
AcDbEntity
  8
0
  6
Continuous
 62
     7
370
    25
100
AcDbLine
 10
-16.0467807964
 20
6.1240560891
 30
0.0
 11
-16.75
 21
2.5909532522
 31
0.0
  0
LINE
  5
671
330
58B
100
AcDbEntity
  8
0
  6
Continuous
 62
     7
370
    25
100
AcDbLine
 10
16.75
 20
2.5909532523
 30
0.0
 11
16.0467807964
 21
6.1240560891
 31
0.0
  0
LINE
  5
672
330
58B
100
AcDbEntity
  8
0
  6
Continuous
 62
     7
370
    25
100
AcDbLine
 10
16.75
 20
2.5909532523
 30
0.0
 11
16.75
 21
-2.5909532522
 31
0.0
  0
LINE
  5
673
330
58B
100
AcDbEntity
  8
0
  6
Continuous
 62
     7
370
    25
100
AcDbLine
 10
-7.8695461814
 20
-15.1580228647
 30
0.0
 11
-2.8804538186
 21
-16.8208734594
 31
0.0
  0
LINE
  5
674
330
58B
100
AcDbEntity
  8
0
  6
Continuous
 62
     7
370
    25
100
AcDbLine
 10
-7.8695461814
 20
-15.1580228647
 30
0.0
 11
-8.0233903982
 21
-14.1465771363
 31
0.0
  0
LINE
  5
675
330
58B
100
AcDbEntity
  8
0
  6
Continuous
 62
     7
370
    25
100
AcDbLine
 10
7.8695461814
 20
-15.1580228647
 30
0.0
 11
8.0233903982
 21
-14.1465771363
 31
0.0
  0
LINE
  5
676
330
58B
100
AcDbEntity
  8
0
  6
Continuous
 62
     7
370
    25
100
AcDbLine
 10
2.8804538186
 20
-16.8208734594
 30
0.0
 11
7.8695461814
 21
-15.1580228647
 31
0.0
  0
LINE
  5
677
330
58B
100
AcDbEntity
  8
0
  6
Continuous
 62
     7
370
    25
100
AcDbLine
 10
-7.8695461814
 20
-15.1580228647
 30
0.0
 11
-13.8969198186
 21
-10.7558607753
 31
0.0
  0
LINE
  5
678
330
58B
100
AcDbEntity
  8
0
  6
Continuous
 62
     7
370
    25
100
AcDbLine
 10
7.8695461814
 20
-15.1580228647
 30
0.0
 11
13.8969198186
 21
-10.7558607753
 31
0.0
  0
LINE
  5
679
330
58B
100
AcDbEntity
  8
0
  6
Continuous
 62
     7
370
    25
100
AcDbLine
 10
-16.0467807964
 20
-6.1240560891
 30
0.0
 11
-13.8969198186
 21
-10.7558607753
 31
0.0
  0
LINE
  5
67A
330
58B
100
AcDbEntity
  8
0
  6
Continuous
 62
     7
370
    25
100
AcDbLine
 10
-16.0467807964
 20
-6.1240560891
 30
0.0
 11
-16.75
 21
-2.5909532523
 31
0.0
  0
LINE
  5
67B
330
58B
100
AcDbEntity
  8
0
  6
Continuous
 62
     7
370
    25
100
AcDbLine
 10
13.8969198186
 20
-10.7558607753
 30
0.0
 11
16.0467807964
 21
-6.1240560891
 31
0.0
  0
LINE
  5
67C
330
58B
100
AcDbEntity
  8
0
  6
Continuous
 62
     7
370
    25
100
AcDbLine
 10
16.75
 20
-2.5909532522
 30
0.0
 11
16.0467807964
 21
-6.1240560891
 31
0.0
  0
LINE
  5
67D
330
58B
100
AcDbEntity
  8
0
  6
Continuous
 62
     7
370
    25
100
AcDbLine
 10
-13.8969198186
 20
10.7558607753
 30
0.0
 11
-7.8695461814
 21
15.1580228647
 31
0.0
  0
LINE
  5
67E
330
58B
100
AcDbEntity
  8
0
  6
Continuous
 62
     7
370
    25
100
AcDbLine
 10
13.8969198186
 20
10.7558607753
 30
0.0
 11
7.8695461814
 21
15.1580228647
 31
0.0
  0
ARC
  5
67F
330
58B
100
AcDbEntity
  8
0
  6
Continuous
 62
     7
370
    25
100
AcDbCircle
 10
0.0
 20
-1.0582804498
 30
0.0
 40
16.06860330437787
100
AcDbArc
 50
242.42868079
 51
297.57131921
  0
ARC
  5
680
330
58B
100
AcDbEntity
  8
0
  6
Continuous
 62
     7
370
    25
100
AcDbCircle
 10
-5.9394389029
 20
-20.9740930312
 30
0.0
 40
3.059734534590537
100
AcDbArc
 50
163.9464850981
 51
196.1424426275
  0
ARC
  5
681
330
58B
100
AcDbEntity
  8
0
  6
Continuous
 62
     7
370
    25
100
AcDbCircle
 10
5.9474328886
 20
-20.9739701977
 30
0.0
 40
3.052062233595814
100
AcDbArc
 50
344.0336041372
 51
16.410559475
  0
ARC
  5
682
330
58B
100
AcDbEntity
  8
0
  6
Continuous
 62
     7
370
    25
100
AcDbCircle
 10
-5.9476138688
 20
-21.9261829117
 30
0.0
 40
3.052387336957047
100
AcDbArc
 50
180.0509279429
 51
194.2849549171
  0
ARC
  5
683
330
58B
100
AcDbEntity
  8
0
  6
Continuous
 62
     7
370
    25
100
AcDbCircle
 10
5.9581241479
 20
-21.9271974643
 30
0.0
 40
3.041876326331237
100
AcDbArc
 50
346.4382050229
 51
359.9680058623
  0
ARC
  5
684
330
58B
100
AcDbEntity
  8
0
  6
Continuous
 62
     8
370
    25
100
AcDbCircle
 10
-4.8181795895
 20
-11.5496157949
 30
0.0
 40
5.881043927500141
100
AcDbArc
 50
199.3967341623
 51
243.6921700483
  0
ARC
  5
685
330
58B
100
AcDbEntity
  8
0
  6
Continuous
 62
     8
370
    25
100
AcDbCircle
 10
-5.2627174401
 20
-22.2376884788
 30
0.0
 40
5.26219613733109
100
AcDbArc
 50
185.5775523588
 51
245.7425885988
  0
ARC
  5
686
330
58B
100
AcDbEntity
  8
0
  6
Continuous
 62
     8
370
    25
100
AcDbCircle
 10
-4.1327495893
 20
-20.1291257455
 30
0.0
 40
5.0396186946714
100
AcDbArc
 50
199.6616317579
 51
243.7215369761
  0
VIEWPORT
  5
88C
330
58B
100
AcDbEntity
  8
0
100
AcDbViewport
 10
0.0
 20
0.0
 30
0.0
 40
205.6
 41
156.0
 68
     1
 69
     1
 12
0.0
 22
0.0
 13
0.0
 23
0.0
 14
10.0
 24
10.0
 15
10.0
 25
10.0
 16
0.0
 26
0.0
 36
1.0
 17
0.0
 27
0.0
 37
0.0
 42
50.0
 43
0.0
 44
0.0
 45
35.3753870846
 50
0.0
 51
0.0
 72
   100
 90
   557152
  1

281
     0
 71
     1
 74
     0
110
0.0
120
0.0
130
0.0
111
1.0
121
0.0
131
0.0
112
0.0
122
1.0
132
0.0
 79
     0
146
0.0
  0
ENDBLK
  5
58E
330
58B
100
AcDbEntity
  8
0
100
AcDbBlockEnd
  0
BLOCK
  5
689
330
687
100
AcDbEntity
  8
0
100
AcDbBlockBegin
  2
*Paper_Space5
 70
     0
 10
0.0
 20
0.0
 30
0.0
  3
*Paper_Space5
  1

  0
SPLINE
  5
68B
330
687
100
AcDbEntity
  8
0
  6
Continuous
 62
     7
370
    25
100
AcDbSpline
210
0.0
220
0.0
230
1.0
 70
     8
 71
     3
 72
    23
 73
    19
 74
     0
 42
0.000000001
 43
0.00000001
 40
0.0
 40
0.0
 40
0.0
 40
0.0
 40
0.0017518099855485
 40
0.0670727823471611
 40
0.1326590426644152
 40
0.1985669632330126
 40
0.2647962986783624
 40
0.3313045630538484
 40
0.3980275986897707
 40
0.4648979258005331
 40
0.5318564543042381
 40
0.598857392628339
 40
0.6658654519212291
 40
0.7328578970663769
 40
0.7998247802741724
 40
0.8667614821287692
 40
0.9336668791695968
 40
1.0
 40
1.0
 40
1.0
 40
1.0
 10
-10.39438869171134
 20
-13.94181280255924
 30
0.0
 10
-10.39373299516745
 20
-13.94491688310757
 30
0.0
 10
-10.3686278799226
 20
-14.06376500061092
 30
0.0
 10
-10.28120174998208
 20
-14.29520589538163
 30
0.0
 10
-10.12939576524963
 20
-14.63427646091186
 30
0.0
 10
-9.932321269260594
 20
-14.96709152670844
 30
0.0
 10
-9.696763656302178
 20
-15.29292167580837
 30
0.0
 10
-9.421859220036216
 20
-15.61024011498866
 30
0.0
 10
-9.109147068945024
 20
-15.91769266986976
 30
0.0
 10
-8.759836536149326
 20
-16.21391817569409
 30
0.0
 10
-8.37548979533955
 20
-16.49765717482754
 30
0.0
 10
-7.957780317523333
 20
-16.76774274878169
 30
0.0
 10
-7.508525722170075
 20
-17.02312116307876
 30
0.0
 10
-7.02959014484829
 20
-17.2627927873989
 30
0.0
 10
-6.523071894926824
 20
-17.48600590022698
 30
0.0
 10
-5.99054402473352
 20
-17.69148883660465
 30
0.0
 10
-5.437379358741349
 20
-17.87974903877693
 30
0.0
 10
-5.051517707664825
 20
-17.98929044503891
 30
0.0
 10
-4.859415544314324
 20
-18.04382590110373
 30
0.0
  0
SPLINE
  5
68C
330
687
100
AcDbEntity
  8
0
  6
Continuous
 62
     7
370
    25
100
AcDbSpline
210
0.0
220
0.0
230
1.0
 70
     8
 71
     3
 72
    38
 73
    34
 74
     0
 42
0.000000001
 43
0.00000001
 40
0.0
 40
0.0
 40
0.0
 40
0.0
 40
0.0173889242829559
 40
0.050414010329491
 40
0.08343185610316
 40
0.1164401073639111
 40
0.1494405693438251
 40
0.1824350474375981
 40
0.2154253280560737
 40
0.2484131760863033
 40
0.2814003416152823
 40
0.314388349741863
 40
0.3473785976420293
 40
0.3803728633700065
 40
0.4133729594299818
 40
0.4463807414229932
 40
0.4793981087242736
 40
0.5124269915276616
 40
0.5454693158594839
 40
0.5785269338319393
 40
0.6116015000764815
 40
0.6446942664730237
 40
0.6778057558692231
 40
0.7109352627001426
 40
0.7440801188894492
 40
0.777234669026409
 40
0.8103851402624841
 40
0.8435128715367269
 40
0.8765925376985301
 40
0.9095918269993873
 40
0.9424745713323891
 40
0.975207751485749
 40
1.0
 40
1.0
 40
1.0
 40
1.0
 10
-4.859415544314324
 20
-18.04382590110373
 30
0.0
 10
-4.75602205080809
 20
-18.07124257634192
 30
0.0
 10
-4.456263390363834
 20
-18.15072906591238
 30
0.0
 10
-3.946138222605509
 20
-18.26736921165208
 30
0.0
 10
-3.32586191496493
 20
-18.38669995303288
 30
0.0
 10
-2.692260557915305
 20
-18.48518574536159
 30
0.0
 10
-2.048188632439813
 20
-18.562791528433
 30
0.0
 10
-1.396078225405547
 20
-18.61914699904563
 30
0.0
 10
-0.7385101072559259
 20
-18.65407015908827
 30
0.0
 10
-0.0780552263917383
 20
-18.66742748726307
 30
0.0
 10
0.5826942021052257
 20
-18.65917255774812
 30
0.0
 10
1.24114482024662
 20
-18.62933652772619
 30
0.0
 10
1.894712209266444
 20
-18.57803088675837
 30
0.0
 10
2.540833623167957
 20
-18.50544575906823
 30
0.0
 10
3.176978871210547
 20
-18.41184839939788
 30
0.0
 10
3.800657977089079
 20
-18.2975814620822
 30
0.0
 10
4.409430786602385
 20
-18.16306070327251
 30
0.0
 10
5.000916074576033
 20
-18.0087721622536
 30
0.0
 10
5.57279994443686
 20
-17.83526889494395
 30
0.0
 10
6.122843307563984
 20
-17.64316735554123
 30
0.0
 10
6.648888164198311
 20
-17.43314361569622
 30
0.0
 10
7.148862411053051
 20
-17.20592975451048
 30
0.0
 10
7.620782739465978
 20
-16.96231095712831
 30
0.0
 10
8.06275584390101
 20
-16.70312423802908
 30
0.0
 10
8.472976290397941
 20
-16.42925989696153
 30
0.0
 10
8.849713619440116
 20
-16.14167908020005
 30
0.0
 10
9.191306375624416
 20
-15.841424778565
 30
0.0
 10
9.496227033106985
 20
-15.529648036878
 30
0.0
 10
9.762906288653737
 20
-15.2076002687343
 30
0.0
 10
9.990519324926979
 20
-14.87673853918564
 30
0.0
 10
10.17622332715206
 20
-14.53843489178875
 30
0.0
 10
10.31383739681914
 20
-14.2222373045069
 30
0.0
 10
10.37024656951635
 20
-14.0171187189608
 30
0.0
 10
10.39455773521097
 20
-13.92871692751767
 30
0.0
  0
SPLINE
  5
68D
330
687
100
AcDbEntity
  8
0
  6
Continuous
 62
     7
370
    25
100
AcDbSpline
210
0.0
220
0.0
230
1.0
 70
     8
 71
     3
 72
    15
 73
    11
 74
     0
 42
0.000000001
 43
0.00000001
 40
0.0
 40
0.0
 40
0.0
 40
0.0
 40
0.0332357659404486
 40
0.1641496649743565
 40
0.2993360956378284
 40
0.4407762104012202
 40
0.5905677981259092
 40
0.7507175085180637
 40
0.9226938959903703
 40
0.9999999999999999
 40
0.9999999999999999
 40
0.9999999999999999
 40
0.9999999999999999
 10
4.360186535089634
 20
-19.11562219617778
 30
0.0
 10
4.361068244895701
 20
-19.11644046388463
 30
0.0
 10
4.365422962326611
 20
-19.120481844191
 30
0.0
 10
4.342552723552351
 20
-19.09710197577767
 30
0.0
 10
4.297387777584937
 20
-19.03936164638531
 30
0.0
 10
4.231483496290381
 20
-18.93873875038411
 30
0.0
 10
4.155486274567169
 20
-18.79459334144239
 30
0.0
 10
4.080055059141467
 20
-18.60202998751997
 30
0.0
 10
4.023823996309553
 20
-18.41509566980026
 30
0.0
 10
4.007370369678735
 20
-18.28839586323447
 30
0.0
 10
4.002267862221849
 20
-18.24910442176119
 30
0.0
  0
SPLINE
  5
68E
330
687
100
AcDbEntity
  8
0
  6
Continuous
 62
     7
370
    25
100
AcDbSpline
210
0.0
220
0.0
230
1.0
 70
     8
 71
     3
 72
    15
 73
    11
 74
     0
 42
0.000000001
 43
0.00000001
 40
0.0
 40
0.0
 40
0.0
 40
0.0
 40
0.0396441535441136
 40
0.2275732316628849
 40
0.4012508942313101
 40
0.5600322229413407
 40
0.70619195200376
 40
0.8427948806527823
 40
0.9727270949945015
 40
1.0
 40
1.0
 40
1.0
 40
1.0
 10
-4.001519486608492
 20
-18.25086507784448
 30
0.0
 10
-4.003677562693574
 20
-18.27116911663928
 30
0.0
 10
-4.016065778986544
 20
-18.38772238644737
 30
0.0
 10
-4.070790829094681
 20
-18.57377760612441
 30
0.0
 10
-4.15056835645755
 20
-18.78544023809661
 30
0.0
 10
-4.231481686881839
 20
-18.93907472294354
 30
0.0
 10
-4.299489744688261
 20
-19.04233919325283
 30
0.0
 10
-4.344147322540083
 20
-19.09893973685227
 30
0.0
 10
-4.365869126266684
 20
-19.12088967452925
 30
0.0
 10
-4.361402411400651
 20
-19.11676762637877
 30
0.0
 10
-4.360627498403328
 20
-19.11605250827001
 30
0.0
  0
SPLINE
  5
68F
330
687
100
AcDbEntity
  8
0
  6
Continuous
 62
     7
370
    25
100
AcDbSpline
210
0.0
220
0.0
230
1.0
 70
     8
 71
     3
 72
    18
 73
    14
 74
     0
 42
0.000000001
 43
0.00000001
 40
0.0
 40
0.0
 40
0.0
 40
0.0
 40
0.0325419903211263
 40
0.1326334059375384
 40
0.2327506546965531
 40
0.3333111241152941
 40
0.4346870567083384
 40
0.5371155334201547
 40
0.6406744420819331
 40
0.7452930843981864
 40
0.8507934849779053
 40
0.956946831903867
 40
1.0
 40
1.0
 40
1.0
 40
1.0
 10
10.49534496809939
 20
-23.90147970390611
 30
0.0
 10
10.49688314558748
 20
-23.86222937329708
 30
0.0
 10
10.50315239086624
 20
-23.70225436926448
 30
0.0
 10
10.47158561573035
 20
-23.42168506807293
 30
0.0
 10
10.40057712221421
 20
-23.06263887287648
 30
0.0
 10
10.28574642374178
 20
-22.7078281452177
 30
0.0
 10
10.13109433002689
 20
-22.3581645234635
 30
0.0
 10
9.935811179224027
 20
-22.01457315987027
 30
0.0
 10
9.700259181576724
 20
-21.6783203224001
 30
0.0
 10
9.425600799970946
 20
-21.3505108442975
 30
0.0
 10
9.110215418675974
 20
-21.03383811066412
 30
0.0
 10
8.83408085428904
 20
-20.78708955063474
 30
0.0
 10
8.651620632115081
 20
-20.65150146624188
 30
0.0
 10
8.598972189686478
 20
-20.61237786236753
 30
0.0
  0
SPLINE
  5
690
330
687
100
AcDbEntity
  8
0
  6
Continuous
 62
     7
370
    25
100
AcDbSpline
210
0.0
220
0.0
230
1.0
 70
     8
 71
     3
 72
    18
 73
    14
 74
     0
 42
0.000000001
 43
0.00000001
 40
0.0
 40
0.0
 40
0.0
 40
0.0
 40
0.0217972875142289
 40
0.1284554673803673
 40
0.2349487040148905
 40
0.341083548153665
 40
0.4466193273008695
 40
0.5512977320173256
 40
0.6548971502729943
 40
0.7572996702270417
 40
0.8585451732497761
 40
0.9588481727336556
 40
1.0
 40
1.0
 40
1.0
 40
1.0
 10
-8.593515315584783
 20
-20.60664983439287
 30
0.0
 10
-8.62068830922589
 20
-20.62638307616155
 30
0.0
 10
-8.780823812141737
 20
-20.74267473826265
 30
0.0
 10
-9.040452394961353
 20
-20.97004822747105
 30
0.0
 10
-9.36840134541619
 20
-21.28832299090641
 30
0.0
 10
-9.655147714401243
 20
-21.6202256140619
 30
0.0
 10
-9.902664312910897
 20
-21.96246768318189
 30
0.0
 10
-10.10859386204025
 20
-22.31356906338277
 30
0.0
 10
-10.27192447316908
 20
-22.67126481033029
 30
0.0
 10
-10.39296578271826
 20
-23.03337018830741
 30
0.0
 10
-10.46838232918569
 20
-23.39772706262478
 30
0.0
 10
-10.50249281403083
 20
-23.69165238251431
 30
0.0
 10
-10.49651695490071
 20
-23.86315742867091
 30
0.0
 10
-10.49477846687354
 20
-23.91305142095727
 30
0.0
  0
SPLINE
  5
693
330
687
100
AcDbEntity
  8
0
  6
Continuous
 62
     7
370
    25
100
AcDbSpline
210
0.0
220
0.0
230
1.0
 70
     8
 71
     3
 72
    21
 73
    17
 74
     0
 42
0.000000001
 43
0.00000001
 40
0.0
 40
0.0
 40
0.0
 40
0.0
 40
0.0305079404999307
 40
0.1086005562439352
 40
0.1871239486945781
 40
0.2661328818362524
 40
0.345594276520607
 40
0.4254192552839203
 40
0.5054996338978996
 40
0.5857350117908176
 40
0.6660461318556002
 40
0.7463733453680793
 40
0.8266775242252966
 40
0.9069428026963462
 40
0.9871624292230394
 40
1.0
 40
1.0
 40
1.0
 40
1.0
 10
8.905193983694222
 20
-21.34486373321466
 30
0.0
 10
8.895172878161388
 20
-21.30286795295321
 30
0.0
 10
8.859500275645088
 20
-21.15337359110658
 30
0.0
 10
8.755422095644807
 20
-20.90078407700263
 30
0.0
 10
8.5941757165205
 20
-20.58859610392512
 30
0.0
 10
8.390245304090097
 20
-20.28323504126692
 30
0.0
 10
8.14766358630659
 20
-19.9857768216707
 30
0.0
 10
7.866570290133874
 20
-19.69782543898432
 30
0.0
 10
7.548573193594101
 20
-19.42084908190941
 30
0.0
 10
7.195221790059697
 20
-19.15627588975483
 30
0.0
 10
6.808415560829088
 20
-18.90535164863678
 30
0.0
 10
6.389942196835035
 20
-18.66939973580565
 30
0.0
 10
5.942593838410026
 20
-18.4488673700497
 30
0.0
 10
5.465905181810272
 20
-18.24689843967081
 30
0.0
 10
5.110137300789638
 20
-18.10947245005223
 30
0.0
 10
4.907491821351387
 20
-18.04524335482229
 30
0.0
 10
4.879536157949762
 20
-18.03638272308346
 30
0.0
  0
SPLINE
  5
694
330
687
100
AcDbEntity
  8
0
  6
Continuous
 62
     7
370
    25
100
AcDbSpline
210
0.0
220
0.0
230
1.0
 70
     8
 71
     3
 72
    20
 73
    16
 74
     0
 42
0.000000001
 43
0.00000001
 40
0.0
 40
0.0
 40
0.0
 40
0.0
 40
0.0779953413770429
 40
0.1583010873613232
 40
0.2386636989659324
 40
0.3190837250963899
 40
0.3995563735973675
 40
0.4800681891615859
 40
0.5605857249745697
 40
0.6410501815434947
 40
0.7213832723096331
 40
0.801481538385241
 40
0.881227179601461
 40
0.9605142983234888
 40
0.9999999999999999
 40
0.9999999999999999
 40
0.9999999999999999
 40
0.9999999999999999
 10
-4.884209184406201
 20
-18.03656398273239
 30
0.0
 10
-5.049065821761988
 20
-18.09438296716145
 30
0.0
 10
-5.38366253601951
 20
-18.21173366969895
 30
0.0
 10
-5.857452393048744
 20
-18.4111061813776
 30
0.0
 10
-6.310719719096388
 20
-18.62796374997541
 30
0.0
 10
-6.734661269680582
 20
-18.8613700374169
 30
0.0
 10
-7.12786468642449
 20
-19.10993357561611
 30
0.0
 10
-7.488252999294374
 20
-19.37280238205289
 30
0.0
 10
-7.814008911285178
 20
-19.64886564054327
 30
0.0
 10
-8.103422829720687
 20
-19.93692763173841
 30
0.0
 10
-8.354659985270416
 20
-20.23565763941216
 30
0.0
 10
-8.567015417061924
 20
-20.54344492545832
 30
0.0
 10
-8.736437910633214
 20
-20.85886960719397
 30
0.0
 10
-8.850003116841464
 20
-21.12603706119724
 30
0.0
 10
-8.890868232253128
 20
-21.28920875899366
 30
0.0
 10
-8.904453728924056
 20
-21.34345474691934
 30
0.0
  0
LWPOLYLINE
  5
699
330
687
100
AcDbEntity
  8
0
  6
Continuous
 62
     7
370
    25
100
AcDbPolyline
 90
       33
 70
   128
 43
0.0
 10
9.2068119173
 20
-14.1717886177
 10
9.1174609557
 20
-14.2540096902
 10
8.7492532323
 20
-14.5616673883
 10
8.34196922
 20
-14.8559714277
 10
7.8974279481
 20
-15.1356073753
 10
7.4176148459
 20
-15.3993263089
 10
6.9046728752
 20
-15.6459503957
 10
6.3608929592
 20
-15.8743781528
 10
5.7887037512
 20
-16.0835893663
 10
5.190660787
 20
-16.2726496482
 10
4.5694350716
 20
-16.4407146093
 10
3.92780115
 20
-16.5870336307
 10
3.2686247149
 20
-16.7109532162
 10
2.5948498084
 20
-16.8119199108
 10
1.9094856728
 20
-16.8894827727
 10
1.2155933106
 20
-16.9432953874
 10
0.5162718136
 20
-16.9731174147
 10
-0.1853554787
 20
-16.9788156621
 10
-0.8861549284
 20
-16.9603646799
 10
-1.5829965951
 20
-16.9178468746
 10
-2.2727682147
 20
-16.8514521412
 10
-2.9523890997
 20
-16.7614770146
 10
-3.6188238983
 20
-16.6483233455
 10
-4.2690961509
 20
-16.5124965057
 10
-4.9003015838
 20
-16.3546031309
 10
-5.5096210802
 20
-16.1753484112
 10
-6.0943332714
 20
-15.9755329417
 10
-6.6518266907
 20
-15.7560491467
 10
-7.1796114373
 20
-15.5178772942
 10
-7.6753302964
 20
-15.2620811175
 10
-8.1367692671
 20
-14.9898030645
 10
-8.5618674511
 20
-14.7022591949
 10
-8.8922959617
 20
-14.447547457
  0
LWPOLYLINE
  5
69E
330
687
100
AcDbEntity
  8
0
  6
Continuous
 62
     7
370
    25
100
AcDbPolyline
 90
       49
 70
   128
 43
0.0
 10
10.5
 20
-25.7150190211
 10
10.4863075252
 20
-25.9911075276
 10
10.4270858321
 20
-26.3512278268
 10
10.3212942424
 20
-26.7085066631
 10
10.1694052472
 20
-27.0613483423
 10
9.9720972194
 20
-27.4081769881
 10
9.7302513847
 20
-27.7474435793
 10
9.4449478852
 20
-28.077632869
 10
9.1174609557
 20
-28.3972701518
 10
8.7492532323
 20
-28.7049278499
 10
8.34196922
 20
-28.9992318893
 10
7.8974279481
 20
-29.2788678369
 10
7.4176148459
 20
-29.5425867704
 10
6.9046728752
 20
-29.7892108573
 10
6.3608929592
 20
-30.0176386144
 10
5.7887037512
 20
-30.2268498279
 10
5.190660787
 20
-30.4159101098
 10
4.5694350716
 20
-30.5839750709
 10
3.92780115
 20
-30.7302940923
 10
3.2686247149
 20
-30.8542136778
 10
2.5948498084
 20
-30.9551803724
 10
1.9094856728
 20
-31.0327432343
 10
1.2155933106
 20
-31.086555849
 10
0.5162718136
 20
-31.1163778762
 10
-0.1853554787
 20
-31.1220761236
 10
-0.8861549284
 20
-31.1036251415
 10
-1.5829965951
 20
-31.0611073362
 10
-2.2727682147
 20
-30.9947126028
 10
-2.9523890997
 20
-30.9047374762
 10
-3.6188238983
 20
-30.7915838071
 10
-4.2690961509
 20
-30.6557569673
 10
-4.9003015838
 20
-30.4978635925
 10
-5.5096210802
 20
-30.3186088728
 10
-6.0943332714
 20
-30.1187934032
 10
-6.6518266907
 20
-29.8993096083
 10
-7.1796114373
 20
-29.6611377558
 10
-7.6753302964
 20
-29.4053415791
 10
-8.1367692671
 20
-29.1330635261
 10
-8.5618674511
 20
-28.8455196565
 10
-8.9487262566
 20
-28.5439942111
 10
-9.2956178783
 20
-28.2298338759
 10
-9.600993014
 20
-27.9044417669
 10
-9.8634877842
 20
-27.5692711646
 10
-10.0819298236
 20
-27.225819022
 10
-10.255343517
 20
-26.8756192798
 10
-10.3829543567
 20
-26.5202360152
 10
-10.4641924018
 20
-26.161256456
 10
-10.4986948233
 20
-25.8002838921
 10
-10.5
 20
-25.7150190211
  0
LWPOLYLINE
  5
6A2
330
687
100
AcDbEntity
  8
0
  6
Continuous
 62
     7
370
    25
100
AcDbPolyline
 90
        3
 70
   128
 43
0.0
 10
8.9308562024
 20
-23.5934324787
 10
8.977780749
 20
-23.3454706798
 10
9.0
 20
-23.0199548719
  0
LWPOLYLINE
  5
706
330
687
100
AcDbEntity
  8
0
  6
Continuous
 62
     8
370
    25
100
AcDbPolyline
 90
       30
 70
   128
 43
0.0
 10
-4.9003015838
 20
-17.9419285347
 10
-4.2690961509
 20
-18.0998219095
 10
-3.6188238983
 20
-18.2356487492
 10
-2.9523890997
 20
-18.3488024183
 10
-2.2727682147
 20
-18.438777545
 10
-1.5829965951
 20
-18.5051722784
 10
-0.8861549284
 20
-18.5476900836
 10
-0.1853554787
 20
-18.5661410658
 10
0.5162718136
 20
-18.5604428184
 10
1.2155933106
 20
-18.5306207911
 10
1.9094856728
 20
-18.4768081765
 10
2.5948498084
 20
-18.3992453145
 10
3.2686247149
 20
-18.2982786199
 10
3.92780115
 20
-18.1743590345
 10
4.5694350716
 20
-18.028040013
 10
5.190660787
 20
-17.8599750519
 10
5.7887037512
 20
-17.6709147701
 10
6.3608929592
 20
-17.4617035566
 10
6.9046728752
 20
-17.2332757995
 10
7.4176148459
 20
-16.9866517126
 10
7.8974279481
 20
-16.722932779
 10
8.34196922
 20
-16.4432968315
 10
8.7492532323
 20
-16.148992792
 10
9.1174609557
 20
-15.8413350939
 10
9.4449478852
 20
-15.5216978112
 10
9.7302513847
 20
-15.1915085214
 10
9.9720972194
 20
-14.8522419302
 10
10.1694052472
 20
-14.5054132845
 10
10.3212942424
 20
-14.1525716052
 10
10.4031949186
 20
-13.8917309175
  0
LWPOLYLINE
  5
707
330
687
100
AcDbEntity
  8
0
  6
Continuous
 62
     8
370
    25
100
AcDbPolyline
 90
       16
 70
   128
 43
0.0
 10
-10.3999317699
 20
-13.9039186262
 10
-10.3829543567
 20
-13.9643009574
 10
-10.255343517
 20
-14.319684222
 10
-10.0819298236
 20
-14.6698839641
 10
-9.8634877842
 20
-15.0133361067
 10
-9.600993014
 20
-15.3485067091
 10
-9.2956178783
 20
-15.673898818
 10
-8.9487262566
 20
-15.9880591533
 10
-8.5618674511
 20
-16.2895845987
 10
-8.1367692671
 20
-16.5771284682
 10
-7.6753302964
 20
-16.8494065213
 10
-7.1796114373
 20
-17.105202698
 10
-6.6518266907
 20
-17.3433745504
 10
-6.0943332714
 20
-17.5628583454
 10
-5.5096210802
 20
-17.7626738149
 10
-4.9003015838
 20
-17.9419285347
  0
LWPOLYLINE
  5
708
330
687
100
AcDbEntity
  8
0
  6
Continuous
 62
     8
370
    25
100
AcDbPolyline
 90
       71
 70
   128
 43
0.0
 10
4.2598037451
 20
-18.1851385681
 10
4.3800708112
 20
-18.2233432112
 10
4.8944266922
 20
-18.4042308848
 10
5.3807477403
 20
-18.6046355319
 10
5.8362483527
 20
-18.8234092528
 10
6.258319463
 20
-19.0592989314
 10
6.6445434862
 20
-19.3109534131
 10
6.992708166
 20
-19.5769312437
 10
7.3008192467
 20
-19.8557089263
 10
7.5671118959
 20
-20.1456896476
 10
7.7900608134
 20
-20.4452124243
 10
7.9683889681
 20
-20.752561617
 10
8.1010749123
 20
-21.0659767574
 10
8.1873586331
 20
-21.383662632
 10
8.2267459051
 20
-21.7037995649
 10
8.2190111216
 20
-22.0245538406
 10
8.1641985866
 20
-22.3440882078
 10
8.0626222615
 20
-22.6605724024
 10
7.9148639663
 20
-22.9721936318
 10
7.7217700469
 20
-23.2771669577
 10
7.4844465281
 20
-23.5737455206
 10
7.2042527773
 20
-23.8602305452
 10
6.882793719
 20
-24.1349810714
 10
6.5219106416
 20
-24.3964233529
 10
6.1236706507
 20
-24.6430598721
 10
5.6903548288
 20
-24.8734779173
 10
5.2244451698
 20
-25.0863576748
 10
4.728610362
 20
-25.2804797887
 10
4.2056905022
 20
-25.454732345
 10
3.6586808281
 20
-25.6081172409
 10
3.0907145616
 20
-25.7397559017
 10
2.5050449619
 20
-25.8488943129
 10
1.9050266916
 20
-25.9349073396
 10
1.2940966008
 20
-25.9973023071
 10
0.675754042
 20
-26.0357218226
 10
0.0535408252
 20
-26.0499458225
 10
-0.5689790687
 20
-26.0398928331
 10
-1.1882399019
 20
-26.0056204371
 10
-1.8006946046
 20
-25.9473249435
 10
-2.4028350916
 20
-25.8653402638
 10
-2.9912123569
 20
-25.7601359986
 10
-3.5624562286
 20
-25.6323147486
 10
-4.1132946737
 20
-25.4826086623
 10
-4.6405725394
 20
-25.3118752425
 10
-5.1412696258
 20
-25.1210924349
 10
-5.6125179855
 20
-24.9113530261
 10
-6.0516183503
 20
-24.6838583844
 10
-6.4560555933
 20
-24.4399115785
 10
-6.8235131345
 20
-24.1809099137
 10
-7.1518862104
 20
-23.908336928
 10
-7.4392939297
 20
-23.6237538948
 10
-7.6840900471
 20
-23.32879088
 10
-7.8848723926
 20
-23.0251374049
 10
-8.0404909031
 20
-22.7145327693
 10
-8.1500542098
 20
-22.3987560882
 10
-8.2129347441
 20
-22.079616102
 10
-8.2287723319
 20
-21.7589408156
 10
-8.197476257
 20
-21.438567028
 10
-8.1192257804
 20
-21.1203298112
 10
-7.9944691139
 20
-20.8060519992
 10
-7.8239208522
 20
-20.4975337468
 10
-7.6085578805
 20
-20.1965422187
 10
-7.3496137782
 20
-19.9048014671
 10
-7.0485717537
 20
-19.6239825565
 10
-6.7071561486
 20
-19.3556939923
 10
-6.3273225605
 20
-19.101472507
 10
-5.9112466417
 20
-18.8627742583
 10
-5.4613116375
 20
-18.6409664882
 10
-4.9800947347
 20
-18.4373196915
 10
-4.4703523004
 20
-18.2530003385
 10
-4.2675934804
 20
-18.1875688297
  0
LWPOLYLINE
  5
709
330
687
100
AcDbEntity
  8
0
  6
Continuous
 62
     8
370
    25
100
AcDbPolyline
 90
       18
 70
   128
 43
0.0
 10
-4.9003015838
 20
-28.6638509583
 10
-5.5096210802
 20
-28.4845962386
 10
-6.0943332714
 20
-28.284780769
 10
-6.6518266907
 20
-28.0652969741
 10
-7.1796114373
 20
-27.8271251216
 10
-7.6753302964
 20
-27.5713289449
 10
-8.1367692671
 20
-27.2990508919
 10
-8.5618674511
 20
-27.0115070223
 10
-8.9487262566
 20
-26.7099815769
 10
-9.2956178783
 20
-26.3958212417
 10
-9.600993014
 20
-26.0704291327
 10
-9.8634877842
 20
-25.7352585304
 10
-10.0819298236
 20
-25.3918063878
 10
-10.255343517
 20
-25.0416066456
 10
-10.3829543567
 20
-24.686223381
 10
-10.4641924018
 20
-24.3272438218
 10
-10.4986948233
 20
-23.9662712579
 10
-10.4998560953
 20
-23.9093193268
  0
LWPOLYLINE
  5
70A
330
687
100
AcDbEntity
  8
0
  6
Continuous
 62
     8
370
    25
100
AcDbPolyline
 90
       32
 70
   128
 43
0.0
 10
10.4999414416
 20
-23.8990674332
 10
10.4863075252
 20
-24.1570948934
 10
10.4270858321
 20
-24.5172151926
 10
10.3212942424
 20
-24.8744940289
 10
10.1694052472
 20
-25.2273357081
 10
9.9720972194
 20
-25.5741643539
 10
9.7302513847
 20
-25.9134309451
 10
9.4449478852
 20
-26.2436202348
 10
9.1174609557
 20
-26.5632575176
 10
8.7492532323
 20
-26.8709152157
 10
8.34196922
 20
-27.1652192551
 10
7.8974279481
 20
-27.4448552027
 10
7.4176148459
 20
-27.7085741362
 10
6.9046728752
 20
-27.9551982231
 10
6.3608929592
 20
-28.1836259802
 10
5.7887037512
 20
-28.3928371937
 10
5.190660787
 20
-28.5818974756
 10
4.5694350716
 20
-28.7499624367
 10
3.92780115
 20
-28.8962814581
 10
3.2686247149
 20
-29.0202010436
 10
2.5948498084
 20
-29.1211677382
 10
1.9094856728
 20
-29.1987306001
 10
1.2155933106
 20
-29.2525432148
 10
0.5162718136
 20
-29.282365242
 10
-0.1853554787
 20
-29.2880634894
 10
-0.8861549284
 20
-29.2696125073
 10
-1.5829965951
 20
-29.227094702
 10
-2.2727682147
 20
-29.1606999686
 10
-2.9523890997
 20
-29.070724842
 10
-3.6188238983
 20
-28.9575711729
 10
-4.2690961509
 20
-28.8217443331
 10
-4.9003015838
 20
-28.6638509583
  0
LWPOLYLINE
  5
70B
330
687
100
AcDbEntity
  8
0
  6
Continuous
 62
     8
370
    25
100
AcDbPolyline
 90
       40
 70
   128
 43
0.0
 10
-4.7407449094
 20
-28.1015286018
 10
-4.1234205276
 20
-28.255808503
 10
-3.4872819237
 20
-28.388272008
 10
-2.8352316521
 20
-28.4983147161
 10
-2.1702448689
 20
-28.5854345278
 10
-1.4953557561
 20
-28.6492339352
 10
-0.8136436779
 20
-28.6894218364
 10
-0.1282191302
 20
-28.7058148631
 10
0.5577904519
 20
-28.6983382178
 10
1.2412549641
 20
-28.6670260146
 10
1.9190559147
 20
-28.612021124
 10
2.5881006532
 20
-28.5335745207
 10
3.2453364821
 20
-28.4320441384
 10
3.8877645849
 20
-28.3078932372
 10
4.5124537097
 20
-28.1616882889
 10
5.1165535432
 20
-27.9940963934
 10
5.6973077163
 20
-27.805882234
 10
6.2520663811
 20
-27.5979045886
 10
6.778298301
 20
-27.3711124117
 10
7.2736024004
 20
-27.1265405039
 10
7.7357187203
 20
-26.8653047907
 10
8.16253873
 20
-26.5885972307
 10
8.5521149476
 20
-26.2976803771
 10
8.9026698262
 20
-25.9938816169
 10
9.2126038643
 20
-25.6785871139
 10
9.480502904
 20
-25.3532354848
 10
9.7051445833
 20
-25.0193112343
 10
9.885503914
 20
-24.6783379824
 10
10.0207579576
 20
-24.3318715116
 10
10.110289581
 20
-23.9814926691
 10
10.1536902719
 20
-23.6288001531
 10
10.150762003
 20
-23.2754032187
 10
10.1015181352
 20
-22.922914335
 10
10.0061833571
 20
-22.5729418281
 10
9.8651926593
 20
-22.2270825421
 10
9.6791893502
 20
-21.8869145536
 10
9.44902212
 20
-21.5539899713
 10
9.1757411691
 20
-21.2298278535
 10
8.8605934158
 20
-20.9159072776
 10
8.7028167252
 20
-20.776075839
  0
LWPOLYLINE
  5
70C
330
687
100
AcDbEntity
  8
0
  6
Continuous
 62
     8
370
    25
100
AcDbPolyline
 90
       26
 70
   128
 43
0.0
 10
-8.7129781683
 20
-20.7847885306
 10
-8.7323742856
 20
-20.8015265671
 10
-9.062807259
 20
-21.1112498987
 10
-9.3518887215
 20
-21.4317558163
 10
-9.5982996607
 20
-21.7615819249
 10
-9.80091576
 20
-22.0992233035
 10
-9.9588125286
 20
-22.4431393721
 10
-10.0712695199
 20
-22.7917609205
 10
-10.1377736182
 20
-23.1434972686
 10
-10.1580213808
 20
-23.496743524
 10
-10.1319204216
 20
-23.8498879051
 10
-10.0595898334
 20
-24.201319095
 10
-9.9413596441
 20
-24.549433594
 10
-9.7777693108
 20
-24.8926430353
 10
-9.5695652589
 20
-25.229381433
 10
-9.3176974755
 20
-25.5581123271
 10
-9.0233151756
 20
-25.8773357938
 10
-8.6877615582
 20
-26.1855952897
 10
-8.3125676775
 20
-26.4814842974
 10
-7.8994454569
 20
-26.7636527432
 10
-7.4502798786
 20
-27.0308131573
 10
-6.967120382
 20
-27.2817465479
 10
-6.4521715131
 20
-27.5153079636
 10
-5.9077828654
 20
-27.7304317171
 10
-5.3364383596
 20
-27.9261362481
 10
-4.7407449094
 20
-28.1015286018
  0
LWPOLYLINE
  5
70D
330
687
100
AcDbEntity
  8
0
  6
Continuous
 62
     8
370
    25
100
AcDbPolyline
 90
       51
 70
   128
 43
0.0
 10
9.0
 20
-22.3714620774
 10
9.0243111899
 20
-22.4465928067
 10
9.1032631794
 20
-22.7800428572
 10
9.1358270264
 20
-23.1155442004
 10
9.121836793
 20
-23.4513871983
 10
9.0613637702
 20
-23.7858604721
 10
8.9547161147
 20
-24.1172596226
 10
8.8024372784
 20
-24.4438959157
 10
8.6053032395
 20
-24.7641048877
 10
8.3643185478
 20
-25.0762548271
 10
8.0807112061
 20
-25.3787550894
 10
7.7559264123
 20
-25.6700642025
 10
7.3916191953
 20
-25.9486977221
 10
6.9896459812
 20
-26.2132357955
 10
6.5520551334
 20
-26.4623303973
 10
6.0810765145
 20
-26.6947121986
 10
5.5791101235
 20
-26.909197035
 10
5.0487138663
 20
-27.1046919409
 10
4.4925905204
 20
-27.2802007191
 10
3.913573963
 20
-27.4348290171
 10
3.3146147298
 20
-27.5677888845
 10
2.6987649797
 20
-27.6784027883
 10
2.0691629419
 20
-27.7661070654
 10
1.429016924
 20
-27.8304547949
 10
0.7815889634
 20
-27.8711180756
 10
0.1301782047
 20
-27.8878896967
 10
-0.5218959124
 20
-27.8806841938
 10
-1.1713105675
 20
-27.8495382845
 10
-1.8147564925
 20
-27.7946106814
 10
-2.4489548343
 20
-27.7161812827
 10
-3.0706738637
 20
-27.6146497468
 10
-3.6767454429
 20
-27.4905334551
 10
-4.2640811701
 20
-27.3444648758
 10
-4.8296881171
 20
-27.1771883408
 10
-5.3706840805
 20
-26.9895562531
 10
-5.8843122689
 20
-26.7825247428
 10
-6.3679553508
 20
-26.5571487949
 10
-6.8191487919
 20
-26.3145768737
 10
-7.2355934138
 20
-26.05604507
 10
-7.6151671103
 20
-25.7828708027
 10
-7.9559356607
 20
-25.4964461053
 10
-8.2561625866
 20
-25.1982305322
 10
-8.5143180005
 20
-24.8897437218
 10
-8.7290864015
 20
-24.5725576521
 10
-8.8993733791
 20
-24.2482886306
 10
-9.0243111899
 20
-23.9185890578
 10
-9.1032631794
 20
-23.5851390074
 10
-9.1358270264
 20
-23.2496376642
 10
-9.121836793
 20
-22.9137946663
 10
-9.0613637702
 20
-22.5793213925
 10
-9.0
 20
-22.3714620774
  0
LWPOLYLINE
  5
70E
330
687
100
AcDbEntity
  8
0
  6
Continuous
 62
     8
370
    25
100
AcDbPolyline
 90
       15
 70
   128
 43
0.0
 10
-4.2002585004
 20
-26.117211517
 10
-4.7636680405
 20
-25.9504264865
 10
-5.3022420213
 20
-25.7631376785
 10
-5.8131725673
 20
-25.5563215302
 10
-6.2937959232
 20
-25.3310562852
 10
-6.7416063415
 20
-25.0885163721
 10
-7.1542691458
 20
-24.8299662818
 10
-7.5296329036
 20
-24.5567539747
 10
-7.8657406418
 20
-24.2703038533
 10
-8.1608400505
 20
-23.9721093358
 10
-8.4133926179
 20
-23.6637250705
 10
-8.622081652
 20
-23.34675883
 10
-8.7858191446
 20
-23.0228631297
 10
-8.9037514443
 20
-22.6937266116
 10
-8.9143383969
 20
-22.6556482947
  0
LWPOLYLINE
  5
70F
330
687
100
AcDbEntity
  8
0
  6
Continuous
 62
     8
370
    25
100
AcDbPolyline
 90
       28
 70
   128
 43
0.0
 10
8.9148381085
 20
-22.6537934896
 10
8.8568189284
 20
-22.8411694879
 10
8.7183519601
 20
-23.1681774569
 10
8.5344315416
 20
-23.4891870065
 10
8.3060165488
 20
-23.8025245417
 10
8.0342978317
 20
-24.1065564657
 10
7.7206920058
 20
-24.3996976966
 10
7.3668340668
 20
-24.6804199319
 10
6.9745688661
 20
-24.9472596159
 10
6.5459414927
 20
-25.19882557
 10
6.0831866115
 20
-25.4338062457
 10
5.588716812
 20
-25.6509765627
 10
5.0651100308
 20
-25.8492042954
 10
4.5150961112
 20
-26.0274559763
 10
3.9415425711
 20
-26.1848022837
 10
3.3474396532
 20
-26.3204228866
 10
2.7358847349
 20
-26.4336107222
 10
2.1100661804
 20
-26.5237756814
 10
1.4732467179
 20
-26.590447686
 10
0.8287464291
 20
-26.6332791388
 10
0.1799254403
 20
-26.6520467367
 10
-0.4698335966
 20
-26.646652634
 10
-1.1171431386
 20
-26.617124953
 10
-1.7586284135
 20
-26.5636176374
 10
-2.3909450142
 20
-26.4864096497
 10
-3.0107963347
 20
-26.3859035164
 10
-3.6149507572
 20
-26.2626232301
 10
-4.2002585004
 20
-26.117211517
  0
LWPOLYLINE
  5
710
330
687
100
AcDbEntity
  8
0
  6
Continuous
 62
     8
370
    25
100
AcDbPolyline
 90
       43
 70
   128
 43
0.0
 10
-4.1134304275
 20
-25.8614487992
 10
-3.5334425531
 20
-26.0053842843
 10
-2.9346022337
 20
-26.1271309336
 10
-2.3201045418
 20
-26.2260391763
 10
-1.6932280883
 20
-26.301581294
 10
-1.0573175303
 20
-26.3533542369
 10
-0.4157657258
 20
-26.3810817738
 10
0.2280043687
 20
-26.3846159664
 10
0.8705579613
 20
-26.3639379583
 10
1.5084667505
 20
-26.3191580755
 10
2.1383272168
 20
-26.2505152381
 10
2.7567787823
 20
-26.1583756853
 10
3.3605217402
 20
-26.0432310216
 10
3.9463348607
 20
-25.9056955935
 10
4.5110925771
 20
-25.746503212
 10
5.0517816628
 20
-25.5665032374
 10
5.5655173076
 20
-25.3666560475
 10
6.0495585095
 20
-25.1480279133
 10
6.5013226993
 20
-24.9117853107
 10
6.9183995195
 20
-24.6591886962
 10
7.2985636849
 20
-24.3915857819
 10
7.6397868552
 20
-24.1104043452
 10
7.940248457
 20
-23.8171446107
 10
8.1983453978
 20
-23.513371246
 10
8.4127006187
 20
-23.2007050135
 10
8.5821704418
 20
-22.8808141227
 10
8.7058506724
 20
-22.55540533
 10
8.7830814228
 20
-22.226214832
 10
8.8134506337
 20
-21.8949990026
 10
8.7967962721
 20
-21.5635250214
 10
8.7332071962
 20
-21.2335614456
 10
8.6230226813
 20
-20.9068687737
 10
8.4668306095
 20
-20.5851900523
 10
8.265464333
 20
-20.2702415767
 10
8.019998228
 20
-19.9637037332
 10
7.7317419625
 20
-19.6672120338
 10
7.4022335082
 20
-19.3823483901
 10
7.0332309355
 20
-19.1106326729
 10
6.6267030326
 20
-18.853514603
 10
6.1848188019
 20
-18.6123660166
 10
5.7099358868
 20
-18.3884735458
 10
5.2045879933
 20
-18.1830317537
 10
4.8272251063
 20
-18.048452873
  0
LWPOLYLINE
  5
711
330
687
100
AcDbEntity
  8
0
  6
Continuous
 62
     8
370
    25
100
AcDbPolyline
 90
       30
 70
   128
 43
0.0
 10
-4.830778391
 20
-18.0496514367
 10
-5.0517816628
 20
-18.1267259604
 10
-5.5655173076
 20
-18.3265731504
 10
-6.0495585095
 20
-18.5452012845
 10
-6.5013226993
 20
-18.7814438871
 10
-6.9183995195
 20
-19.0340405016
 10
-7.2985636849
 20
-19.3016434159
 10
-7.6397868552
 20
-19.5828248526
 10
-7.940248457
 20
-19.8760845871
 10
-8.1983453978
 20
-20.1798579518
 10
-8.4127006187
 20
-20.4925241843
 10
-8.5821704418
 20
-20.8124150751
 10
-8.7058506724
 20
-21.1378238678
 10
-8.7830814228
 20
-21.4670143658
 10
-8.8134506337
 20
-21.7982301952
 10
-8.7967962721
 20
-22.1297041764
 10
-8.7332071962
 20
-22.4596677522
 10
-8.6230226813
 20
-22.7863604241
 10
-8.4668306095
 20
-23.1080391455
 10
-8.265464333
 20
-23.4229876211
 10
-8.019998228
 20
-23.7295254646
 10
-7.7317419625
 20
-24.026017164
 10
-7.4022335082
 20
-24.3108808077
 10
-7.0332309355
 20
-24.582596525
 10
-6.6267030326
 20
-24.8397145949
 10
-6.1848188019
 20
-25.0808631812
 10
-5.7099358868
 20
-25.3047556521
 10
-5.2045879933
 20
-25.5101974441
 10
-4.6714713709
 20
-25.6960924366
 10
-4.1134304275
 20
-25.8614487992
  0
LWPOLYLINE
  5
712
330
687
100
AcDbEntity
  8
0
  6
Continuous
 62
     8
370
    25
100
AcDbPolyline
 90
       42
 70
   128
 43
0.0
 10
-8.9277904516
 20
-23.6059581349
 10
-8.8505550121
 20
-23.8611676773
 10
-8.7096282451
 20
-24.1878967828
 10
-8.5232935093
 20
-24.5085367799
 10
-8.2925222677
 20
-24.8214160002
 10
-8.0185176548
 20
-25.1249032363
 10
-7.7027082037
 20
-25.4174162463
 10
-7.3467403986
 20
-25.6974300028
 10
-6.9524700909
 20
-25.9634846438
 10
-6.5219528234
 20
-26.2141930835
 10
-6.0574331138
 20
-26.4482482441
 10
-5.5613327528
 20
-26.6644298706
 10
-5.0362381778
 20
-26.861610892
 10
-4.484886989
 20
-27.0387632977
 10
-3.910153676
 20
-27.1949634971
 10
-3.3150346323
 20
-27.3293971347
 10
-2.7026325331
 20
-27.4413633358
 10
-2.0761401592
 20
-27.5302783604
 10
-1.4388237519
 20
-27.5956786468
 10
-0.7940059837
 20
-27.6372232282
 10
-0.145048636
 20
-27.6546955103
 10
0.5046649281
 20
-27.6480044008
 10
1.151747403
 20
-27.617184784
 10
1.7928252002
 20
-27.5623973391
 10
2.4245560369
 20
-27.4839277025
 10
3.0436463612
 20
-27.3821849785
 10
3.6468685226
 20
-27.2576996067
 10
4.2310776002
 20
-27.111120596
 10
4.7932277983
 20
-26.9432121416
 10
5.3303883261
 20
-26.7548496403
 10
5.8397586773
 20
-26.5470151272
 10
6.3186832308
 20
-26.320792155
 10
6.7646650958
 20
-26.0773601457
 10
7.1753791292
 20
-25.8179882409
 10
7.5486840582
 20
-25.5440286858
 10
7.8826336439
 20
-25.2569097785
 10
8.1754868278
 20
-24.9581284242
 10
8.4257168088
 20
-24.6492423303
 10
8.6320190039
 20
-24.3318618861
 10
8.7933178487
 20
-24.0076417662
 10
8.908772406
 20
-23.6782723041
 10
8.9308562024
 20
-23.5934324787
  0
LINE
  5
713
330
687
100
AcDbEntity
  8
0
  6
Continuous
 62
     7
370
    25
100
AcDbLine
 10
10.5
 20
-25.7150190211
 30
0.0
 11
10.5
 21
-23.8810063869
 31
0.0
  0
LINE
  5
714
330
687
100
AcDbEntity
  8
0
  6
Continuous
 62
     7
370
    25
100
AcDbLine
 10
-10.5
 20
-23.8810063869
 30
0.0
 11
-10.5
 21
-25.7150190211
 31
0.0
  0
LINE
  5
715
330
687
100
AcDbEntity
  8
0
  6
Continuous
 62
     7
370
    25
100
AcDbLine
 10
9.0
 20
-23.0199548719
 30
0.0
 11
9.0
 21
-22.0176304558
 31
0.0
  0
LINE
  5
716
330
687
100
AcDbEntity
  8
0
  6
Continuous
 62
     7
370
    25
100
AcDbLine
 10
-9.0
 20
-22.0176304558
 30
0.0
 11
-9.0
 21
-23.0199548719
 31
0.0
  0
LINE
  5
717
330
687
100
AcDbEntity
  8
0
  6
Continuous
 62
     7
370
    25
100
AcDbLine
 10
-10.4998560953
 20
-23.9093193268
 30
0.0
 11
-10.5
 21
-23.8810063869
 31
0.0
  0
LINE
  5
718
330
687
100
AcDbEntity
  8
0
  6
Continuous
 62
     7
370
    25
100
AcDbLine
 10
10.5
 20
-23.8810063869
 30
0.0
 11
10.4999414416
 21
-23.8990674332
 31
0.0
  0
LINE
  5
719
330
687
100
AcDbEntity
  8
0
  6
Continuous
 62
     7
370
    25
100
AcDbLine
 10
-3.5606021456
 20
-1.6299254844
 30
0.0
 11
4.7398110896
 21
-1.4671898906
 31
0.0
  0
LINE
  5
71A
330
687
100
AcDbEntity
  8
0
  6
Continuous
 62
     7
370
    25
100
AcDbLine
 10
0.4233443392
 20
5.4153518947
 30
0.0
 11
-3.5606021456
 21
-1.6299254844
 31
0.0
  0
LINE
  5
71B
330
687
100
AcDbEntity
  8
0
  6
Continuous
 62
     7
370
    25
100
AcDbLine
 10
0.4233443392
 20
5.4153518947
 30
0.0
 11
4.7398110896
 21
-1.4671898906
 31
0.0
  0
LINE
  5
71C
330
687
100
AcDbEntity
  8
0
  6
Continuous
 62
     7
370
    25
100
AcDbLine
 10
4.7398110896
 20
-1.4671898906
 30
0.0
 11
11.7701957711
 21
0.8112576946
 31
0.0
  0
LINE
  5
71D
330
687
100
AcDbEntity
  8
0
  6
Continuous
 62
     7
370
    25
100
AcDbLine
 10
5.9272090659
 20
6.291753897
 30
0.0
 11
4.7398110896
 21
-1.4671898906
 31
0.0
  0
LINE
  5
71E
330
687
100
AcDbEntity
  8
0
  6
Continuous
 62
     7
370
    25
100
AcDbLine
 10
5.9272090659
 20
6.291753897
 30
0.0
 11
11.7701957711
 21
0.8112576946
 31
0.0
  0
LINE
  5
71F
330
687
100
AcDbEntity
  8
0
  6
Continuous
 62
     7
370
    25
100
AcDbLine
 10
9.2354187772
 20
-7.5591908794
 30
0.0
 11
4.7398110896
 21
-1.4671898906
 31
0.0
  0
LINE
  5
720
330
687
100
AcDbEntity
  8
0
  6
Continuous
 62
     7
370
    25
100
AcDbLine
 10
9.2354187772
 20
-7.5591908794
 30
0.0
 11
0.6596295517
 21
-8.9247474876
 31
0.0
  0
LINE
  5
721
330
687
100
AcDbEntity
  8
0
  6
Continuous
 62
     7
370
    25
100
AcDbLine
 10
0.6596295517
 20
-8.9247474876
 30
0.0
 11
4.7398110896
 21
-1.4671898906
 31
0.0
  0
LINE
  5
722
330
687
100
AcDbEntity
  8
0
  6
Continuous
 62
     7
370
    25
100
AcDbLine
 10
-5.1939551614
 20
6.0737154435
 30
0.0
 11
0.4233443392
 21
5.4153518947
 31
0.0
  0
LINE
  5
723
330
687
100
AcDbEntity
  8
0
  6
Continuous
 62
     7
370
    25
100
AcDbLine
 10
-5.1939551614
 20
6.0737154435
 30
0.0
 11
-3.5606021456
 21
-1.6299254844
 31
0.0
  0
LINE
  5
724
330
687
100
AcDbEntity
  8
0
  6
Continuous
 62
     7
370
    25
100
AcDbLine
 10
0.6596295517
 20
-8.9247474876
 30
0.0
 11
-3.5606021456
 21
-1.6299254844
 31
0.0
  0
LINE
  5
725
330
687
100
AcDbEntity
  8
0
  6
Continuous
 62
     7
370
    25
100
AcDbLine
 10
0.6596295517
 20
-8.9247474876
 30
0.0
 11
-8.0929068794
 21
-7.8989252138
 31
0.0
  0
LINE
  5
726
330
687
100
AcDbEntity
  8
0
  6
Continuous
 62
     7
370
    25
100
AcDbLine
 10
-8.0929068794
 20
-7.8989252138
 30
0.0
 11
-3.5606021456
 21
-1.6299254844
 31
0.0
  0
LINE
  5
727
330
687
100
AcDbEntity
  8
0
  6
Continuous
 62
     7
370
    25
100
AcDbLine
 10
-10.9069549113
 20
0.366655784
 30
0.0
 11
-3.5606021456
 21
-1.6299254844
 31
0.0
  0
LINE
  5
728
330
687
100
AcDbEntity
  8
0
  6
Continuous
 62
     7
370
    25
100
AcDbLine
 10
-5.1939551614
 20
6.0737154435
 30
0.0
 11
-10.9069549113
 21
0.366655784
 31
0.0
  0
LINE
  5
729
330
687
100
AcDbEntity
  8
0
  6
Continuous
 62
     7
370
    25
100
AcDbLine
 10
0.4233443392
 20
5.4153518947
 30
0.0
 11
5.9272090659
 21
6.291753897
 31
0.0
  0
LINE
  5
72A
330
687
100
AcDbEntity
  8
0
  6
Continuous
 62
     7
370
    25
100
AcDbLine
 10
0.0
 20
14.1432604616
 30
0.0
 11
5.9272090659
 21
6.291753897
 31
0.0
  0
LINE
  5
72B
330
687
100
AcDbEntity
  8
0
  6
Continuous
 62
     7
370
    25
100
AcDbLine
 10
0.0
 20
14.1432604616
 30
0.0
 11
0.4233443392
 21
5.4153518947
 31
0.0
  0
LINE
  5
72C
330
687
100
AcDbEntity
  8
0
  6
Continuous
 62
     7
370
    25
100
AcDbLine
 10
0.0
 20
14.1432604616
 30
0.0
 11
-5.1939551614
 21
6.0737154435
 31
0.0
  0
LINE
  5
72D
330
687
100
AcDbEntity
  8
0
  6
Continuous
 62
     7
370
    25
100
AcDbLine
 10
-8.0929068794
 20
-7.8989252138
 30
0.0
 11
-10.9069549113
 21
0.366655784
 31
0.0
  0
LINE
  5
72E
330
687
100
AcDbEntity
  8
0
  6
Continuous
 62
     7
370
    25
100
AcDbLine
 10
9.2354187772
 20
-7.5591908794
 30
0.0
 11
11.7701957711
 21
0.8112576946
 31
0.0
  0
LINE
  5
72F
330
687
100
AcDbEntity
  8
0
  6
Continuous
 62
     7
370
    25
100
AcDbLine
 10
-9.419538571
 20
8.0904365622
 30
0.0
 11
-5.1939551614
 21
6.0737154435
 31
0.0
  0
LINE
  5
730
330
687
100
AcDbEntity
  8
0
  6
Continuous
 62
     7
370
    25
100
AcDbLine
 10
-10.9069549113
 20
0.366655784
 30
0.0
 11
-9.419538571
 21
8.0904365622
 31
0.0
  0
LINE
  5
731
330
687
100
AcDbEntity
  8
0
  6
Continuous
 62
     7
370
    25
100
AcDbLine
 10
9.2354187772
 20
-7.5591908794
 30
0.0
 11
4.7398110896
 21
-14.3246994011
 31
0.0
  0
LINE
  5
732
330
687
100
AcDbEntity
  8
0
  6
Continuous
 62
     7
370
    25
100
AcDbLine
 10
0.6596295517
 20
-8.9247474876
 30
0.0
 11
4.7398110896
 21
-14.3246994011
 31
0.0
  0
LINE
  5
733
330
687
100
AcDbEntity
  8
0
  6
Continuous
 62
     7
370
    25
100
AcDbLine
 10
15.3365849995
 20
-4.1681551796
 30
0.0
 11
11.7701957711
 21
0.8112576946
 31
0.0
  0
LINE
  5
734
330
687
100
AcDbEntity
  8
0
  6
Continuous
 62
     7
370
    25
100
AcDbLine
 10
15.3365849995
 20
-4.1681551796
 30
0.0
 11
9.2354187772
 21
-7.5591908794
 31
0.0
  0
LINE
  5
735
330
687
100
AcDbEntity
  8
0
  6
Continuous
 62
     7
370
    25
100
AcDbLine
 10
0.0
 20
14.1432604616
 30
0.0
 11
9.8428829101
 21
8.4680902416
 31
0.0
  0
LINE
  5
736
330
687
100
AcDbEntity
  8
0
  6
Continuous
 62
     7
370
    25
100
AcDbLine
 10
5.9272090659
 20
6.291753897
 30
0.0
 11
9.8428829101
 21
8.4680902416
 31
0.0
  0
LINE
  5
737
330
687
100
AcDbEntity
  8
0
  6
Continuous
 62
     7
370
    25
100
AcDbLine
 10
9.8428829101
 20
8.4680902416
 30
0.0
 11
11.7701957711
 21
0.8112576946
 31
0.0
  0
LINE
  5
738
330
687
100
AcDbEntity
  8
0
  6
Continuous
 62
     7
370
    25
100
AcDbLine
 10
-8.0929068794
 20
-7.8989252138
 30
0.0
 11
-14.6769554478
 21
-4.756592308
 31
0.0
  0
LINE
  5
739
330
687
100
AcDbEntity
  8
0
  6
Continuous
 62
     7
370
    25
100
AcDbLine
 10
-10.9069549113
 20
0.366655784
 30
0.0
 11
-14.6769554478
 21
-4.756592308
 31
0.0
  0
LINE
  5
73A
330
687
100
AcDbEntity
  8
0
  6
Continuous
 62
     7
370
    25
100
AcDbLine
 10
0.0
 20
14.1432604616
 30
0.0
 11
-9.419538571
 21
8.0904365622
 31
0.0
  0
LINE
  5
73B
330
687
100
AcDbEntity
  8
0
  6
Continuous
 62
     7
370
    25
100
AcDbLine
 10
-15.3307979166
 20
3.9875715762
 30
0.0
 11
-10.9069549113
 21
0.366655784
 31
0.0
  0
LINE
  5
73C
330
687
100
AcDbEntity
  8
0
  6
Continuous
 62
     7
370
    25
100
AcDbLine
 10
-15.3307979166
 20
3.9875715762
 30
0.0
 11
-9.419538571
 21
8.0904365622
 31
0.0
  0
LINE
  5
73D
330
687
100
AcDbEntity
  8
0
  6
Continuous
 62
     7
370
    25
100
AcDbLine
 10
0.6596295517
 20
-8.9247474876
 30
0.0
 11
-3.5606021456
 21
-14.4874349949
 31
0.0
  0
LINE
  5
73E
330
687
100
AcDbEntity
  8
0
  6
Continuous
 62
     7
370
    25
100
AcDbLine
 10
-8.0929068794
 20
-7.8989252138
 30
0.0
 11
-3.5606021456
 21
-14.4874349949
 31
0.0
  0
LINE
  5
73F
330
687
100
AcDbEntity
  8
0
  6
Continuous
 62
     7
370
    25
100
AcDbLine
 10
-3.5606021456
 20
-14.4874349949
 30
0.0
 11
4.7398110896
 21
-14.3246994011
 31
0.0
  0
LINE
  5
740
330
687
100
AcDbEntity
  8
0
  6
Continuous
 62
     7
370
    25
100
AcDbLine
 10
11.7701957711
 20
0.8112576946
 30
0.0
 11
15.6467660009
 21
4.5949090807
 31
0.0
  0
LINE
  5
741
330
687
100
AcDbEntity
  8
0
  6
Continuous
 62
     7
370
    25
100
AcDbLine
 10
9.8428829101
 20
8.4680902416
 30
0.0
 11
15.6467660009
 21
4.5949090807
 31
0.0
  0
LINE
  5
742
330
687
100
AcDbEntity
  8
0
  6
Continuous
 62
     7
370
    25
100
AcDbLine
 10
-11.1211642274
 20
10.9251364557
 30
0.0
 11
-9.419538571
 21
8.0904365622
 31
0.0
  0
LINE
  5
743
330
687
100
AcDbEntity
  8
0
  6
Continuous
 62
     7
370
    25
100
AcDbLine
 10
0.0
 20
14.1432604616
 30
0.0
 11
-11.1211642274
 21
10.9251364557
 31
0.0
  0
LINE
  5
744
330
687
100
AcDbEntity
  8
0
  6
Continuous
 62
     7
370
    25
100
AcDbLine
 10
-10.9069549113
 20
-12.4908537265
 30
0.0
 11
-3.5606021456
 21
-14.4874349949
 31
0.0
  0
LINE
  5
745
330
687
100
AcDbEntity
  8
0
  6
Continuous
 62
     7
370
    25
100
AcDbLine
 10
-8.0929068794
 20
-7.8989252138
 30
0.0
 11
-10.9069549113
 21
-12.4908537265
 31
0.0
  0
LINE
  5
746
330
687
100
AcDbEntity
  8
0
  6
Continuous
 62
     7
370
    25
100
AcDbLine
 10
4.7398110896
 20
-14.3246994011
 30
0.0
 11
11.7701957711
 21
-12.0462518159
 31
0.0
  0
LINE
  5
747
330
687
100
AcDbEntity
  8
0
  6
Continuous
 62
     7
370
    25
100
AcDbLine
 10
9.2354187772
 20
-7.5591908794
 30
0.0
 11
11.7701957711
 21
-12.0462518159
 31
0.0
  0
LINE
  5
748
330
687
100
AcDbEntity
  8
0
  6
Continuous
 62
     7
370
    25
100
AcDbLine
 10
-15.3307979166
 20
3.9875715762
 30
0.0
 11
-14.6769554478
 21
-4.756592308
 31
0.0
  0
LINE
  5
749
330
687
100
AcDbEntity
  8
0
  6
Continuous
 62
     7
370
    25
100
AcDbLine
 10
15.3365849995
 20
-4.1681551796
 30
0.0
 11
15.6467660009
 21
4.5949090807
 31
0.0
  0
LINE
  5
74A
330
687
100
AcDbEntity
  8
0
  6
Continuous
 62
     7
370
    25
100
AcDbLine
 10
15.3365849995
 20
-4.1681551796
 30
0.0
 11
11.7701957711
 21
-12.0462518159
 31
0.0
  0
LINE
  5
74B
330
687
100
AcDbEntity
  8
0
  6
Continuous
 62
     7
370
    25
100
AcDbLine
 10
-10.9069549113
 20
-12.4908537265
 30
0.0
 11
-14.6769554478
 21
-4.756592308
 31
0.0
  0
LINE
  5
74C
330
687
100
AcDbEntity
  8
0
  6
Continuous
 62
     7
370
    25
100
AcDbLine
 10
-15.3307979166
 20
3.9875715762
 30
0.0
 11
-11.1211642274
 21
10.9251364557
 31
0.0
  0
LINE
  5
74D
330
687
100
AcDbEntity
  8
0
  6
Continuous
 62
     7
370
    25
100
AcDbLine
 10
0.0
 20
14.1432604616
 30
0.0
 11
11.1211642274
 21
11.3612133626
 31
0.0
  0
LINE
  5
74E
330
687
100
AcDbEntity
  8
0
  6
Continuous
 62
     7
370
    25
100
AcDbLine
 10
9.8428829101
 20
8.4680902416
 30
0.0
 11
11.1211642274
 21
11.3612133626
 31
0.0
  0
LINE
  5
74F
330
687
100
AcDbEntity
  8
0
  6
Continuous
 62
     7
370
    25
100
AcDbLine
 10
11.1211642274
 20
11.3612133626
 30
0.0
 11
15.6467660009
 21
4.5949090807
 31
0.0
  0
LINE
  5
750
330
687
100
AcDbEntity
  8
0
  6
Continuous
 62
     7
370
    25
100
AcDbLine
 10
-9.8428829101
 20
13.8182595766
 30
0.0
 11
-11.1211642274
 21
10.9251364557
 31
0.0
  0
LINE
  5
751
330
687
100
AcDbEntity
  8
0
  6
Continuous
 62
     7
370
    25
100
AcDbLine
 10
0.0
 20
14.1432604616
 30
0.0
 11
-9.8428829101
 21
13.8182595766
 31
0.0
  0
LINE
  5
752
330
687
100
AcDbEntity
  8
0
  6
Continuous
 62
     7
370
    25
100
AcDbLine
 10
0.4233443392
 20
-16.8709979235
 30
0.0
 11
-3.5606021456
 21
-14.4874349949
 31
0.0
  0
LINE
  5
753
330
687
100
AcDbEntity
  8
0
  6
Continuous
 62
     7
370
    25
100
AcDbLine
 10
0.4233443392
 20
-16.8709979235
 30
0.0
 11
4.7398110896
 21
-14.3246994011
 31
0.0
  0
LINE
  5
754
330
687
100
AcDbEntity
  8
0
  6
Continuous
 62
     7
370
    25
100
AcDbLine
 10
0.0
 20
14.1432604616
 30
0.0
 11
9.419538571
 21
14.195913256
 31
0.0
  0
LINE
  5
755
330
687
100
AcDbEntity
  8
0
  6
Continuous
 62
     7
370
    25
100
AcDbLine
 10
11.1211642274
 20
11.3612133626
 30
0.0
 11
9.419538571
 21
14.195913256
 31
0.0
  0
LINE
  5
756
330
687
100
AcDbEntity
  8
0
  6
Continuous
 62
     7
370
    25
100
AcDbLine
 10
-14.6769554478
 20
-4.756592308
 30
0.0
 11
-17.3283256566
 21
-0.3397343345
 31
0.0
  0
LINE
  5
757
330
687
100
AcDbEntity
  8
0
  6
Continuous
 62
     7
370
    25
100
AcDbLine
 10
-15.3307979166
 20
3.9875715762
 30
0.0
 11
-17.3283256566
 21
-0.3397343345
 31
0.0
  0
LINE
  5
758
330
687
100
AcDbEntity
  8
0
  6
Continuous
 62
     7
370
    25
100
AcDbLine
 10
-15.6467660009
 20
8.2626004298
 30
0.0
 11
-15.3307979166
 21
3.9875715762
 31
0.0
  0
LINE
  5
759
330
687
100
AcDbEntity
  8
0
  6
Continuous
 62
     7
370
    25
100
AcDbLine
 10
-15.6467660009
 20
8.2626004298
 30
0.0
 11
-11.1211642274
 21
10.9251364557
 31
0.0
  0
LINE
  5
75A
330
687
100
AcDbEntity
  8
0
  6
Continuous
 62
     7
370
    25
100
AcDbLine
 10
5.9272090659
 20
-15.9945959213
 30
0.0
 11
4.7398110896
 21
-14.3246994011
 31
0.0
  0
LINE
  5
75B
330
687
100
AcDbEntity
  8
0
  6
Continuous
 62
     7
370
    25
100
AcDbLine
 10
5.9272090659
 20
-15.9945959213
 30
0.0
 11
11.7701957711
 21
-12.0462518159
 31
0.0
  0
LINE
  5
75C
330
687
100
AcDbEntity
  8
0
  6
Continuous
 62
     7
370
    25
100
AcDbLine
 10
17.3283256566
 20
0.3397343345
 30
0.0
 11
15.6467660009
 21
4.5949090807
 31
0.0
  0
LINE
  5
75D
330
687
100
AcDbEntity
  8
0
  6
Continuous
 62
     7
370
    25
100
AcDbLine
 10
17.3283256566
 20
0.3397343345
 30
0.0
 11
15.3365849995
 21
-4.1681551796
 31
0.0
  0
LINE
  5
75E
330
687
100
AcDbEntity
  8
0
  6
Continuous
 62
     7
370
    25
100
AcDbLine
 10
0.0
 20
14.1432604616
 30
0.0
 11
5.1939551614
 21
16.2126343747
 31
0.0
  0
LINE
  5
75F
330
687
100
AcDbEntity
  8
0
  6
Continuous
 62
     7
370
    25
100
AcDbLine
 10
9.419538571
 20
14.195913256
 30
0.0
 11
5.1939551614
 21
16.2126343747
 31
0.0
  0
LINE
  5
760
330
687
100
AcDbEntity
  8
0
  6
Continuous
 62
     7
370
    25
100
AcDbLine
 10
-5.1939551614
 20
-16.2126343747
 30
0.0
 11
0.4233443392
 21
-16.8709979235
 31
0.0
  0
LINE
  5
761
330
687
100
AcDbEntity
  8
0
  6
Continuous
 62
     7
370
    25
100
AcDbLine
 10
-5.1939551614
 20
-16.2126343747
 30
0.0
 11
-3.5606021456
 21
-14.4874349949
 31
0.0
  0
LINE
  5
762
330
687
100
AcDbEntity
  8
0
  6
Continuous
 62
     7
370
    25
100
AcDbLine
 10
-15.3307979166
 20
-8.8699379343
 30
0.0
 11
-10.9069549113
 21
-12.4908537265
 31
0.0
  0
LINE
  5
763
330
687
100
AcDbEntity
  8
0
  6
Continuous
 62
     7
370
    25
100
AcDbLine
 10
-15.3307979166
 20
-8.8699379343
 30
0.0
 11
-14.6769554478
 21
-4.756592308
 31
0.0
  0
LINE
  5
764
330
687
100
AcDbEntity
  8
0
  6
Continuous
 62
     7
370
    25
100
AcDbLine
 10
11.7701957711
 20
-12.0462518159
 30
0.0
 11
15.6467660009
 21
-8.2626004298
 31
0.0
  0
LINE
  5
765
330
687
100
AcDbEntity
  8
0
  6
Continuous
 62
     7
370
    25
100
AcDbLine
 10
15.3365849995
 20
-4.1681551796
 30
0.0
 11
15.6467660009
 21
-8.2626004298
 31
0.0
  0
LINE
  5
766
330
687
100
AcDbEntity
  8
0
  6
Continuous
 62
     7
370
    25
100
AcDbLine
 10
15.6467660009
 20
4.5949090807
 30
0.0
 11
15.3307979166
 21
8.8699379343
 31
0.0
  0
LINE
  5
767
330
687
100
AcDbEntity
  8
0
  6
Continuous
 62
     7
370
    25
100
AcDbLine
 10
11.1211642274
 20
11.3612133626
 30
0.0
 11
15.3307979166
 21
8.8699379343
 31
0.0
  0
LINE
  5
768
330
687
100
AcDbEntity
  8
0
  6
Continuous
 62
     7
370
    25
100
AcDbLine
 10
-5.1939551614
 20
-16.2126343747
 30
0.0
 11
-10.9069549113
 21
-12.4908537265
 31
0.0
  0
LINE
  5
769
330
687
100
AcDbEntity
  8
0
  6
Continuous
 62
     7
370
    25
100
AcDbLine
 10
0.4233443392
 20
-16.8709979235
 30
0.0
 11
5.9272090659
 21
-15.9945959213
 31
0.0
  0
LINE
  5
76A
330
687
100
AcDbEntity
  8
0
  6
Continuous
 62
     7
370
    25
100
AcDbLine
 10
-5.9272090659
 20
15.9945959213
 30
0.0
 11
-9.8428829101
 21
13.8182595766
 31
0.0
  0
LINE
  5
76B
330
687
100
AcDbEntity
  8
0
  6
Continuous
 62
     7
370
    25
100
AcDbLine
 10
0.0
 20
14.1432604616
 30
0.0
 11
-5.9272090659
 21
15.9945959213
 31
0.0
  0
LINE
  5
76C
330
687
100
AcDbEntity
  8
0
  6
Continuous
 62
     7
370
    25
100
AcDbLine
 10
-0.4233443392
 20
16.8709979235
 30
0.0
 11
-5.9272090659
 21
15.9945959213
 31
0.0
  0
LINE
  5
76D
330
687
100
AcDbEntity
  8
0
  6
Continuous
 62
     7
370
    25
100
AcDbLine
 10
0.0
 20
14.1432604616
 30
0.0
 11
-0.4233443392
 21
16.8709979235
 31
0.0
  0
LINE
  5
76E
330
687
100
AcDbEntity
  8
0
  6
Continuous
 62
     7
370
    25
100
AcDbLine
 10
5.1939551614
 20
16.2126343747
 30
0.0
 11
-0.4233443392
 21
16.8709979235
 31
0.0
  0
LINE
  5
76F
330
687
100
AcDbEntity
  8
0
  6
Continuous
 62
     7
370
    25
100
AcDbLine
 10
-15.6467660009
 20
8.2626004298
 30
0.0
 11
-17.3283256566
 21
-0.3397343345
 31
0.0
  0
LINE
  5
770
330
687
100
AcDbEntity
  8
0
  6
Continuous
 62
     7
370
    25
100
AcDbLine
 10
-15.3307979166
 20
-8.8699379343
 30
0.0
 11
-17.3283256566
 21
-0.3397343345
 31
0.0
  0
LINE
  5
771
330
687
100
AcDbEntity
  8
0
  6
Continuous
 62
     7
370
    25
100
AcDbLine
 10
-9.419538571
 20
-14.195913256
 30
0.0
 11
-5.1939551614
 21
-16.2126343747
 31
0.0
  0
LINE
  5
772
330
687
100
AcDbEntity
  8
0
  6
Continuous
 62
     7
370
    25
100
AcDbLine
 10
-10.9069549113
 20
-12.4908537265
 30
0.0
 11
-9.419538571
 21
-14.195913256
 31
0.0
  0
LINE
  5
773
330
687
100
AcDbEntity
  8
0
  6
Continuous
 62
     7
370
    25
100
AcDbLine
 10
-15.6467660009
 20
8.2626004298
 30
0.0
 11
-9.8428829101
 21
13.8182595766
 31
0.0
  0
LINE
  5
774
330
687
100
AcDbEntity
  8
0
  6
Continuous
 62
     7
370
    25
100
AcDbLine
 10
9.419538571
 20
14.195913256
 30
0.0
 11
15.3307979166
 21
8.8699379343
 31
0.0
  0
LINE
  5
775
330
687
100
AcDbEntity
  8
0
  6
Continuous
 62
     7
370
    25
100
AcDbLine
 10
17.3283256566
 20
0.3397343345
 30
0.0
 11
15.6467660009
 21
-8.2626004298
 31
0.0
  0
LINE
  5
776
330
687
100
AcDbEntity
  8
0
  6
Continuous
 62
     7
370
    25
100
AcDbLine
 10
17.3283256566
 20
0.3397343345
 30
0.0
 11
15.3307979166
 21
8.8699379343
 31
0.0
  0
LINE
  5
777
330
687
100
AcDbEntity
  8
0
  6
Continuous
 62
     7
370
    25
100
AcDbLine
 10
9.8428829101
 20
-13.8182595766
 30
0.0
 11
11.7701957711
 21
-12.0462518159
 31
0.0
  0
LINE
  5
778
330
687
100
AcDbEntity
  8
0
  6
Continuous
 62
     7
370
    25
100
AcDbLine
 10
5.9272090659
 20
-15.9945959213
 30
0.0
 11
9.8428829101
 21
-13.8182595766
 31
0.0
  0
LINE
  5
779
330
687
100
AcDbEntity
  8
0
  6
Continuous
 62
     7
370
    25
100
AcDbLine
 10
-15.3307979166
 20
-8.8699379343
 30
0.0
 11
-9.419538571
 21
-14.195913256
 31
0.0
  0
LINE
  5
77A
330
687
100
AcDbEntity
  8
0
  6
Continuous
 62
     7
370
    25
100
AcDbLine
 10
-11.7701957711
 20
12.0462518159
 30
0.0
 11
-15.6467660009
 21
8.2626004298
 31
0.0
  0
LINE
  5
77B
330
687
100
AcDbEntity
  8
0
  6
Continuous
 62
     7
370
    25
100
AcDbLine
 10
-11.7701957711
 20
12.0462518159
 30
0.0
 11
-9.8428829101
 21
13.8182595766
 31
0.0
  0
ARC
  5
77C
330
687
100
AcDbEntity
  8
0
  6
Continuous
 62
     7
370
    25
100
AcDbCircle
 10
0.1849815805
 20
0.8343459003
 30
0.0
 40
17.54651420465939
100
AcDbArc
 50
276.052256786
 51
282.0426927208
  0
ARC
  5
77D
330
687
100
AcDbEntity
  8
0
  6
Continuous
 62
     7
370
    25
100
AcDbCircle
 10
-0.0724434733
 20
1.6347804286
 30
0.0
 40
18.35442736501646
100
AcDbArc
 50
259.9225113655
 51
266.7080245042
  0
ARC
  5
77E
330
687
100
AcDbEntity
  8
0
  6
Continuous
 62
     7
370
    25
100
AcDbCircle
 10
7.636761176
 20
-13.1530856215
 30
0.0
 40
2.863346385821756
100
AcDbArc
 50
345.0506089253
 51
358.7689480516
  0
ARC
  5
77F
330
687
100
AcDbEntity
  8
0
  6
Continuous
 62
     7
370
    25
100
AcDbCircle
 10
-7.6536079898
 20
-13.1555698586
 30
0.0
 40
2.846457479551758
100
AcDbArc
 50
181.3592851385
 51
195.2425226652
  0
ARC
  5
780
330
687
100
AcDbEntity
  8
0
  6
Continuous
 62
     7
370
    25
100
AcDbCircle
 10
-6.5754572642
 20
-22.017636753
 30
0.0
 40
2.4243398441615
100
AcDbArc
 50
164.769929371
 51
195.2581938275
  0
ARC
  5
781
330
687
100
AcDbEntity
  8
0
  6
Continuous
 62
     7
370
    25
100
AcDbCircle
 10
6.5677979116
 20
-22.0176329351
 30
0.0
 40
2.431727356617392
100
AcDbArc
 50
344.8344735286
 51
15.1494582372
  0
ARC
  5
782
330
687
100
AcDbEntity
  8
0
  6
Continuous
 62
     7
370
    25
100
AcDbCircle
 10
-6.5594285419
 20
-23.0166689835
 30
0.0
 40
2.440573670065437
100
AcDbArc
 50
180.0771407142
 51
193.9724420998
  0
VIEWPORT
  5
88E
330
687
100
AcDbEntity
  8
0
100
AcDbViewport
 10
0.0
 20
0.0
 30
0.0
 40
205.6
 41
156.0
 68
     1
 69
     1
 12
0.0
 22
0.0
 13
0.0
 23
0.0
 14
10.0
 24
10.0
 15
10.0
 25
10.0
 16
0.0
 26
0.0
 36
1.0
 17
0.0
 27
0.0
 37
0.0
 42
50.0
 43
0.0
 44
0.0
 45
35.3753870846
 50
0.0
 51
0.0
 72
   100
 90
   557152
  1

281
     0
 71
     1
 74
     0
110
0.0
120
0.0
130
0.0
111
1.0
121
0.0
131
0.0
112
0.0
122
1.0
132
0.0
 79
     0
146
0.0
  0
ENDBLK
  5
68A
330
687
100
AcDbEntity
  8
0
100
AcDbBlockEnd
  0
BLOCK
  5
785
330
783
100
AcDbEntity
  8
0
100
AcDbBlockBegin
  2
*Paper_Space6
 70
     0
 10
0.0
 20
0.0
 30
0.0
  3
*Paper_Space6
  1

  0
SPLINE
  5
789
330
783
100
AcDbEntity
  8
0
  6
Continuous
 62
     7
370
    25
100
AcDbSpline
210
0.0
220
0.0
230
1.0
 70
     8
 71
     3
 72
    18
 73
    14
 74
     0
 42
0.000000001
 43
0.00000001
 40
0.0
 40
0.0
 40
0.0
 40
0.0
 40
0.0508323599886762
 40
0.1458564833380403
 40
0.2411200223956222
 40
0.3377393338815063
 40
0.4363521330060618
 40
0.5369061801538272
 40
0.6388672576212008
 40
0.7415900433921415
 40
0.8445783075380937
 40
0.9474963483352238
 40
1.0
 40
1.0
 40
1.0
 40
1.0
 10
-10.49392777932555
 20
-14.42721770084821
 30
0.0
 10
-10.49628426648332
 20
-14.46939841146607
 30
0.0
 10
-10.50304588309803
 20
-14.59043017384717
 30
0.0
 10
-10.46834426113633
 20
-14.79000177130844
 30
0.0
 10
-10.3940901442141
 20
-15.02289566530458
 30
0.0
 10
-10.27727941625291
 20
-15.25216163929543
 30
0.0
 10
-10.1201781506078
 20
-15.47795452055021
 30
0.0
 10
-9.921698988320937
 20
-15.6998294177207
 30
0.0
 10
-9.682230668552819
 20
-15.91662392438274
 30
0.0
 10
-9.403517045994287
 20
-16.12716076920962
 30
0.0
 10
-9.085130646757582
 20
-16.3296423438825
 30
0.0
 10
-8.793899488654079
 20
-16.49353251343303
 30
0.0
 10
-8.596228257458977
 20
-16.58625604236305
 30
0.0
 10
-8.52945211249222
 20
-16.61757936529794
 30
0.0
  0
SPLINE
  5
78A
330
783
100
AcDbEntity
  8
0
  6
Continuous
 62
     7
370
    25
100
AcDbSpline
210
0.0
220
0.0
230
1.0
 70
     8
 71
     3
 72
    18
 73
    14
 74
     0
 42
0.000000001
 43
0.00000001
 40
0.0
 40
0.0
 40
0.0
 40
0.0
 40
0.0403797103552431
 40
0.1400005402691613
 40
0.2398305516116073
 40
0.3398775680780766
 40
0.4401113362370889
 40
0.5403903196866047
 40
0.6403447933531226
 40
0.7394097615487241
 40
0.8368792692012217
 40
0.9322599412188568
 40
1.0
 40
1.0
 40
1.0
 40
1.0
 10
8.263212280487904
 20
-16.73929997407028
 30
0.0
 10
8.319433869991018
 20
-16.71545222777871
 30
0.0
 10
8.514359807695397
 20
-16.63276967915096
 30
0.0
 10
8.813536495577152
 20
-16.48143563780448
 30
0.0
 10
9.159805923743281
 20
-16.28588068935023
 30
0.0
 10
9.468522918965515
 20
-16.08092384768559
 30
0.0
 10
9.740798192237799
 20
-15.8675701868066
 30
0.0
 10
9.974340047275202
 20
-15.64600958890701
 30
0.0
 10
10.16736392247725
 20
-15.4169808647542
 30
0.0
 10
10.31852028333284
 20
-15.1817389866822
 30
0.0
 10
10.42433521199457
 20
-14.94219735341686
 30
0.0
 10
10.48552481214657
 20
-14.72273599910321
 30
0.0
 10
10.49205115300511
 20
-14.58337838735779
 30
0.0
 10
10.49476138309799
 20
-14.52550657201582
 30
0.0
  0
SPLINE
  5
78B
330
783
100
AcDbEntity
  8
0
  6
Continuous
 62
     7
370
    25
100
AcDbSpline
210
0.0
220
0.0
230
1.0
 70
     8
 71
     3
 72
    26
 73
    22
 74
     0
 42
0.000000001
 43
0.00000001
 40
0.0
 40
0.0
 40
0.0
 40
0.0
 40
0.0091427734705013
 40
0.0556616504031701
 40
0.1022070736366495
 40
0.1493612905565449
 40
0.1977808619216264
 40
0.2482115777441509
 40
0.3012844371847515
 40
0.3573651849121597
 40
0.4163895770204724
 40
0.4777850136046645
 40
0.5406072105292904
 40
0.6038600933402217
 40
0.6667657436108503
 40
0.728823553038996
 40
0.7896228569051184
 40
0.8488659268309393
 40
0.9062307931703129
 40
0.9613473347927635
 40
1.0
 40
1.0
 40
1.0
 40
1.0
 10
5.114762367015958
 20
-22.22522888349745
 30
0.0
 10
5.115719142643711
 20
-22.22577754768083
 30
0.0
 10
5.121544039287834
 20
-22.22911784196492
 30
0.0
 10
5.094745556720467
 20
-22.21257194571337
 30
0.0
 10
5.035635769339351
 20
-22.16865651618829
 30
0.0
 10
4.94216411344277
 20
-22.08975338357172
 30
0.0
 10
4.82386928265777
 20
-21.97401737309742
 30
0.0
 10
4.685687766333239
 20
-21.81632263013625
 30
0.0
 10
4.53551882234881
 20
-21.61288636414148
 30
0.0
 10
4.382826923710592
 20
-21.36141180232236
 30
0.0
 10
4.239130502337393
 20
-21.06309957969361
 30
0.0
 10
4.116626513950749
 20
-20.72384096767827
 30
0.0
 10
4.026055567300654
 20
-20.35403599767064
 30
0.0
 10
3.974682121166403
 20
-19.96666676641073
 30
0.0
 10
3.965568043092643
 20
-19.57486494978285
 30
0.0
 10
3.998051490065737
 20
-19.1904883725402
 30
0.0
 10
4.068568356657214
 20
-18.82389289421646
 30
0.0
 10
4.171118993683319
 20
-18.4834119441772
 30
0.0
 10
4.298049444389746
 20
-18.17808908670104
 30
0.0
 10
4.427120723584157
 20
-17.93051519074521
 30
0.0
 10
4.514019566069783
 20
-17.80110594080182
 30
0.0
 10
4.549840193960922
 20
-17.74776207044289
 30
0.0
  0
SPLINE
  5
78C
330
783
100
AcDbEntity
  8
0
  6
Continuous
 62
     7
370
    25
100
AcDbSpline
210
0.0
220
0.0
230
1.0
 70
     8
 71
     3
 72
    26
 73
    22
 74
     0
 42
0.000000001
 43
0.00000001
 40
0.0
 40
0.0
 40
0.0
 40
0.0
 40
0.0508560244295205
 40
0.1095643495624756
 40
0.1707522655294537
 40
0.2335086010383464
 40
0.2968235308809555
 40
0.3598800408267924
 40
0.4221425788320912
 40
0.483199199659588
 40
0.5427369726378841
 40
0.6004424939305065
 40
0.6559480640693236
 40
0.7089181035215578
 40
0.7591987201682369
 40
0.8069269804841304
 40
0.8525207243102206
 40
0.8965792727607373
 40
0.9397732015091744
 40
0.9827648505730943
 40
1.0
 40
1.0
 40
1.0
 40
1.0
 10
-4.546636766185167
 20
-17.75038397932108
 30
0.0
 10
-4.499860347529084
 20
-17.82252636710915
 30
0.0
 10
-4.399085111115978
 20
-17.97795011252673
 30
0.0
 10
-4.25788206818507
 20
-18.26472418146194
 30
0.0
 10
-4.131670073099291
 20
-18.59811453383779
 30
0.0
 10
-4.0362474905718
 20
-18.96470257664228
 30
0.0
 10
-3.979234562249671
 20
-19.35040263655351
 30
0.0
 10
-3.964310961480999
 20
-19.74234983116758
 30
0.0
 10
-3.991263383230405
 20
-20.12835098871435
 30
0.0
 10
-4.056870601312183
 20
-20.49798536352771
 30
0.0
 10
-4.155501115576377
 20
-20.84226778953234
 30
0.0
 10
-4.279505789487358
 20
-21.15361848771331
 30
0.0
 10
-4.419563271072694
 20
-21.42605092993662
 30
0.0
 10
-4.565426281118402
 20
-21.65582672762856
 30
0.0
 10
-4.707115567940581
 20
-21.84203413330816
 30
0.0
 10
-4.836207379673684
 20
-21.98654301629099
 30
0.0
 10
-4.946038817252655
 20
-22.0929500503839
 30
0.0
 10
-5.03271320375931
 20
-22.16621072333302
 30
0.0
 10
-5.090174354610076
 20
-22.20920634997885
 30
0.0
 10
-5.118280435388996
 20
-22.22725117655856
 30
0.0
 10
-5.114857566893566
 20
-22.22521871645275
 30
0.0
 10
-5.113878041973338
 20
-22.22463708577496
 30
0.0
  0
SPLINE
  5
78D
330
783
100
AcDbEntity
  8
0
  6
Continuous
 62
     7
370
    25
100
AcDbSpline
210
0.0
220
0.0
230
1.0
 70
     8
 71
     3
 72
    16
 73
    12
 74
     0
 42
0.000000001
 43
0.00000001
 40
0.0
 40
0.0
 40
0.0
 40
0.0
 40
0.1208163722670459
 40
0.2491342243535979
 40
0.3774222536924129
 40
0.5044137711404881
 40
0.6283706708749998
 40
0.7476639841820638
 40
0.8617614084799535
 40
0.9715478864843318
 40
1.0
 40
1.0
 40
1.0
 40
1.0
 10
-9.0
 20
-24.22101493452965
 30
0.0
 10
-9.107408051315268
 20
-24.28797810472603
 30
0.0
 10
-9.328893112086785
 20
-24.42606218351511
 30
0.0
 10
-9.619054526856
 20
-24.6499144969752
 30
0.0
 10
-9.879193889455545
 20
-24.8895533778616
 30
0.0
 10
-10.0969910015071
 20
-25.14114859452389
 30
0.0
 10
-10.26972767585245
 20
-25.40214785535116
 30
0.0
 10
-10.39624289919554
 20
-25.66914412568032
 30
0.0
 10
-10.47163602315992
 20
-25.93782457376592
 30
0.0
 10
-10.50371892971975
 20
-26.14130053344289
 30
0.0
 10
-10.49722704743238
 20
-26.25286108482854
 30
0.0
 10
-10.49589089542345
 20
-26.27582235372598
 30
0.0
  0
SPLINE
  5
78E
330
783
100
AcDbEntity
  8
0
  6
Continuous
 62
     7
370
    25
100
AcDbSpline
210
0.0
220
0.0
230
1.0
 70
     8
 71
     3
 72
    17
 73
    13
 74
     0
 42
0.000000001
 43
0.00000001
 40
0.0
 40
0.0
 40
0.0
 40
0.0
 40
0.0397844151377954
 40
0.146605158992522
 40
0.2536985500679883
 40
0.362978762611763
 40
0.4760487841063695
 40
0.5937457824909665
 40
0.7158701722711597
 40
0.8412753650282698
 40
0.9684464010363295
 40
0.9999999999999999
 40
0.9999999999999999
 40
0.9999999999999999
 40
0.9999999999999999
 10
10.49500601584376
 20
-26.27813698913986
 30
0.0
 10
10.4965364302472
 20
-26.2460043031598
 30
0.0
 10
10.50217599152174
 20
-26.1275956871063
 30
0.0
 10
10.46838728900171
 20
-25.92341583631815
 30
0.0
 10
10.39556788928443
 20
-25.67073569192949
 30
0.0
 10
10.28064524947611
 20
-25.42410947822426
 30
0.0
 10
10.12670777845033
 20
-25.18257684019552
 30
0.0
 10
9.931128034835924
 20
-24.94567698796864
 30
0.0
 10
9.693993828716534
 20
-24.71369743232415
 30
0.0
 10
9.412041838199682
 20
-24.48926873728431
 30
0.0
 10
9.179256763417927
 20
-24.32547420571483
 30
0.0
 10
9.029725922442264
 20
-24.24014577256857
 30
0.0
 10
9.0
 20
-24.22318294156143
 30
0.0
  0
SPLINE
  5
791
330
783
100
AcDbEntity
  8
0
  6
Continuous
 62
     7
370
    25
100
AcDbSpline
210
0.0
220
0.0
230
1.0
 70
     8
 71
     3
 72
    24
 73
    20
 74
     0
 42
0.000000001
 43
0.00000001
 40
0.0
 40
0.0
 40
0.0
 40
0.0
 40
0.0189706637705853
 40
0.0797955659790721
 40
0.1408245718547673
 40
0.2029581711113476
 40
0.2666707910290718
 40
0.3318538418795986
 40
0.3980221872708863
 40
0.4646514739297734
 40
0.5313614227896892
 40
0.597957147299338
 40
0.664395366671613
 40
0.730676426471436
 40
0.7968173526464971
 40
0.8628394584947686
 40
0.9287632997219472
 40
0.9946069714267317
 40
1.0
 40
1.0
 40
1.0
 40
1.0
 10
8.995429717263537
 20
-24.20744910867289
 30
0.0
 10
8.996523426464705
 20
-24.18443299396911
 30
0.0
 10
9.001123852985318
 20
-24.08762120490173
 30
0.0
 10
8.96664702804916
 20
-23.91741060827478
 30
0.0
 10
8.89256697798923
 20
-23.70036896054628
 30
0.0
 10
8.77524196793511
 20
-23.48742438521574
 30
0.0
 10
8.618031321502013
 20
-23.27824002013643
 30
0.0
 10
8.41935888036271
 20
-23.07332098954173
 30
0.0
 10
8.180029145681297
 20
-22.87395065219363
 30
0.0
 10
7.901542934379695
 20
-22.68161665285649
 30
0.0
 10
7.586068997628064
 20
-22.49755463136643
 30
0.0
 10
7.235779448037397
 20
-22.32261054646057
 30
0.0
 10
6.852655717675918
 20
-22.1573716444815
 30
0.0
 10
6.438608634634409
 20
-22.00226401245704
 30
0.0
 10
5.995330959913395
 20
-21.85785565065968
 30
0.0
 10
5.525537106451778
 20
-21.72413952936528
 30
0.0
 10
5.028558790807131
 20
-21.60325017537908
 30
0.0
 10
4.673265960261746
 20
-21.5241479531574
 30
0.0
 10
4.478750429423221
 20
-21.48906586359347
 30
0.0
 10
4.464024483223271
 20
-21.48640994732153
 30
0.0
  0
SPLINE
  5
792
330
783
100
AcDbEntity
  8
0
  6
Continuous
 62
     7
370
    25
100
AcDbSpline
210
0.0
220
0.0
230
1.0
 70
     8
 71
     3
 72
    23
 73
    19
 74
     0
 42
0.000000001
 43
0.00000001
 40
0.0
 40
0.0
 40
0.0
 40
0.0
 40
0.0389447040876858
 40
0.1047041188821835
 40
0.1705296061231227
 40
0.2364364507969005
 40
0.3024429221350775
 40
0.3685703909900844
 40
0.4348425801978946
 40
0.5012826456062379
 40
0.5679052634026803
 40
0.6346980597862559
 40
0.7015707673759458
 40
0.7682108216546883
 40
0.8341242436491626
 40
0.8986920811478678
 40
0.9615400126112628
 40
1.0
 40
1.0
 40
1.0
 40
1.0
 10
-4.463552596239092
 20
-21.48766930789861
 30
0.0
 10
-4.568427758494681
 20
-21.50780731471295
 30
0.0
 10
-4.850388084393517
 20
-21.5619490089159
 30
0.0
 10
-5.28536242695517
 20
-21.66360998254037
 30
0.0
 10
-5.76803132198916
 20
-21.79081519472809
 30
0.0
 10
-6.2235881512674
 20
-21.92973972216321
 30
0.0
 10
-6.651227114618147
 20
-22.07922863432162
 30
0.0
 10
-7.048777610632899
 20
-22.23902158528719
 30
0.0
 10
-7.414608905757434
 20
-22.40865977781381
 30
0.0
 10
-7.74709656659395
 20
-22.58781219820137
 30
0.0
 10
-8.044718626571678
 20
-22.77621652105399
 30
0.0
 10
-8.305891118899094
 20
-22.97368305550273
 30
0.0
 10
-8.528829898266048
 20
-23.17990967297152
 30
0.0
 10
-8.711245887100215
 20
-23.39424838995654
 30
0.0
 10
-8.851607671790084
 20
-23.6153153571348
 30
0.0
 10
-8.945748843251668
 20
-23.84083441674407
 30
0.0
 10
-8.995133364091275
 20
-24.04011398552276
 30
0.0
 10
-8.995044893795473
 20
-24.16322177905207
 30
0.0
 10
-8.995011307413488
 20
-24.20995775231299
 30
0.0
  0
LWPOLYLINE
  5
795
330
783
100
AcDbEntity
  8
0
  6
Continuous
 62
     7
370
    25
100
AcDbPolyline
 90
       42
 70
   128
 43
0.0
 10
10.0597817776
 20
-13.730739791
 10
9.9404125363
 20
-13.8552689275
 10
9.6923189896
 20
-14.0740668697
 10
9.4009371934
 20
-14.2868526024
 10
9.0675685297
 20
-14.4926757728
 10
8.6937019036
 20
-14.6906171248
 10
8.2810070945
 20
-14.8797926041
 10
7.8313272974
 20
-15.0593573073
 10
7.3466708915
 20
-15.2285092547
 10
6.82920247
 20
-15.3864929726
 10
6.2812331725
 20
-15.5326028675
 10
5.7052103628
 20
-15.666186377
 10
5.1037066986
 20
-15.7866468849
 10
4.4794086414
 20
-15.8934463852
 10
3.8351044578
 20
-15.9861078854
 10
3.1736717668
 20
-16.0642175367
 10
2.4980646871
 20
-16.1274264826
 10
1.8113006442
 20
-16.1754524165
 10
1.1164468929
 20
-16.208080843
 10
0.4166068188
 20
-16.2251660355
 10
-0.2850939225
 20
-16.2266316874
 10
-0.9855213652
 20
-16.2124712528
 10
-1.6815472302
 20
-16.1827479757
 10
-2.3700628971
 20
-16.1375946073
 10
-3.0479932877
 20
-16.0772128137
 10
-3.7123106004
 20
-16.0018722745
 10
-4.3600478328
 20
-15.9119094789
 10
-4.9883120331
 20
-15.8077262225
 10
-5.594297221
 20
-15.6897878132
 10
-6.1752969194
 20
-15.5586209924
 10
-6.7287162427
 20
-15.414811583
 10
-7.2520834859
 20
-15.2590018727
 10
-7.7430611637
 20
-15.0918877456
 10
-8.1994564508
 20
-14.9142155739
 10
-8.6192309748
 20
-14.7267788846
 10
-9.000509921
 20
-14.5304148155
 10
-9.341590405
 20
-14.3260003763
 10
-9.6409490785
 20
-14.1144485313
 10
-9.8972489331
 20
-13.8967041225
 10
-10.1093452713
 20
-13.6737396493
 10
-10.2762908195
 20
-13.4465509252
 10
-10.3451655327
 20
-13.3267681836
  0
LWPOLYLINE
  5
79B
330
783
100
AcDbEntity
  8
0
  6
Continuous
 62
     7
370
    25
100
AcDbPolyline
 90
       49
 70
   128
 43
0.0
 10
10.5
 20
-28.2842712483
 10
10.4807410536
 20
-28.4961587886
 10
10.4148787061
 20
-28.7290310508
 10
10.302500982
 20
-28.9599169077
 10
10.1441097876
 20
-29.1877851672
 10
9.9404125363
 20
-29.4116181141
 10
9.6923189896
 20
-29.6304160563
 10
9.4009371934
 20
-29.8432017889
 10
9.0675685297
 20
-30.0490249594
 10
8.6937019036
 20
-30.2469663113
 10
8.2810070945
 20
-30.4361417907
 10
7.8313272974
 20
-30.6157064939
 10
7.3466708915
 20
-30.7848584412
 10
6.82920247
 20
-30.9428421592
 10
6.2812331725
 20
-31.0889520541
 10
5.7052103628
 20
-31.2225355636
 10
5.1037066986
 20
-31.3429960715
 10
4.4794086414
 20
-31.4497955717
 10
3.8351044578
 20
-31.5424570719
 10
3.1736717668
 20
-31.6205667233
 10
2.4980646871
 20
-31.6837756692
 10
1.8113006442
 20
-31.7318016031
 10
1.1164468929
 20
-31.7644300295
 10
0.4166068188
 20
-31.781515222
 10
-0.2850939225
 20
-31.782980874
 10
-0.9855213652
 20
-31.7688204394
 10
-1.6815472302
 20
-31.7390971623
 10
-2.3700628971
 20
-31.6939437939
 10
-3.0479932877
 20
-31.6335620003
 10
-3.7123106004
 20
-31.5582214611
 10
-4.3600478328
 20
-31.4682586654
 10
-4.9883120331
 20
-31.3640754091
 10
-5.594297221
 20
-31.2461369997
 10
-6.1752969194
 20
-31.1149701789
 10
-6.7287162427
 20
-30.9711607695
 10
-7.2520834859
 20
-30.8153510593
 10
-7.7430611637
 20
-30.6482369322
 10
-8.1994564508
 20
-30.4705647605
 10
-8.6192309748
 20
-30.2831280712
 10
-9.000509921
 20
-30.0867640021
 10
-9.341590405
 20
-29.8823495628
 10
-9.6409490785
 20
-29.6707977179
 10
-9.8972489331
 20
-29.4530533091
 10
-10.1093452713
 20
-29.2300888359
 10
-10.2762908195
 20
-29.0029001118
 10
-10.3973399583
 20
-28.7725018167
 10
-10.4719520528
 20
-28.5399229654
 10
-10.4997938673
 20
-28.3062023114
 10
-10.5
 20
-28.2842712483
  0
LWPOLYLINE
  5
803
330
783
100
AcDbEntity
  8
0
  6
Continuous
 62
     8
370
    25
100
AcDbPolyline
 90
       30
 70
   128
 43
0.0
 10
-3.7123106004
 20
-17.7477913517
 10
-3.0479932877
 20
-17.8231318909
 10
-2.3700628971
 20
-17.8835136845
 10
-1.6815472302
 20
-17.9286670529
 10
-0.9855213652
 20
-17.95839033
 10
-0.2850939225
 20
-17.9725507646
 10
0.4166068188
 20
-17.9710851126
 10
1.1164468929
 20
-17.9539999201
 10
1.8113006442
 20
-17.9213714937
 10
2.4980646871
 20
-17.8733455598
 10
3.1736717668
 20
-17.8101366139
 10
3.8351044578
 20
-17.7320269625
 10
4.4794086414
 20
-17.6393654623
 10
5.1037066986
 20
-17.5325659621
 10
5.7052103628
 20
-17.4121054542
 10
6.2812331725
 20
-17.2785219447
 10
6.82920247
 20
-17.1324120498
 10
7.3466708915
 20
-16.9744283318
 10
7.8313272974
 20
-16.8052763845
 10
8.2810070945
 20
-16.6257116813
 10
8.6937019036
 20
-16.436536202
 10
9.0675685297
 20
-16.23859485
 10
9.4009371934
 20
-16.0327716795
 10
9.6923189896
 20
-15.8199859469
 10
9.9404125363
 20
-15.6011880047
 10
10.1441097876
 20
-15.3773550578
 10
10.302500982
 20
-15.1494867983
 10
10.4148787061
 20
-14.9186009414
 10
10.4807410536
 20
-14.6857286792
 10
10.4991343695
 20
-14.5187824489
  0
LWPOLYLINE
  5
804
330
783
100
AcDbEntity
  8
0
  6
Continuous
 62
     8
370
    25
100
AcDbPolyline
 90
       20
 70
   128
 43
0.0
 10
-10.5
 20
-14.4738411389
 10
-10.4997938673
 20
-14.4957722021
 10
-10.4719520528
 20
-14.729492856
 10
-10.3973399583
 20
-14.9620717073
 10
-10.2762908195
 20
-15.1924700024
 10
-10.1093452713
 20
-15.4196587265
 10
-9.8972489331
 20
-15.6426231997
 10
-9.6409490785
 20
-15.8603676085
 10
-9.341590405
 20
-16.0719194534
 10
-9.000509921
 20
-16.2763338927
 10
-8.6192309748
 20
-16.4726979618
 10
-8.1994564508
 20
-16.6601346511
 10
-7.7430611637
 20
-16.8378068228
 10
-7.2520834859
 20
-17.0049209499
 10
-6.7287162427
 20
-17.1607306601
 10
-6.1752969194
 20
-17.3045400695
 10
-5.594297221
 20
-17.4357068904
 10
-4.9883120331
 20
-17.5536452997
 10
-4.3600478328
 20
-17.6578285561
 10
-3.7123106004
 20
-17.7477913517
  0
LWPOLYLINE
  5
805
330
783
100
AcDbEntity
  8
0
  6
Continuous
 62
     8
370
    25
100
AcDbPolyline
 90
       69
 70
   128
 43
0.0
 10
4.6398691004
 20
-21.7252697729
 10
5.0726620127
 20
-21.8308056092
 10
5.5482133077
 20
-21.964871502
 10
5.9919849393
 20
-22.1105418854
 10
6.4014350238
 20
-22.2669823728
 10
6.7742182682
 20
-22.4332968871
 10
7.1081994039
 20
-22.608532794
 10
7.401465417
 20
-22.791686358
 10
7.6523365065
 20
-22.981708492
 10
7.8593757056
 20
-23.1775107666
 10
8.0213971123
 20
-23.377971644
 10
8.1374726827
 20
-23.5819429024
 10
8.2069375466
 20
-23.788256213
 10
8.2293938154
 20
-23.9957298318
 10
8.2047128616
 20
-24.2031753686
 10
8.1330360557
 20
-24.4094045944
 10
8.0147739557
 20
-24.6132362466
 10
7.8506039563
 20
-24.8135027962
 10
7.6414664084
 20
-25.0090571343
 10
7.3885592329
 20
-25.1987791435
 10
7.0933310592
 20
-25.3815821133
 10
6.7574729276
 20
-25.5564189649
 10
6.382908603
 20
-25.7222882485
 10
5.971783556
 20
-25.87823988
 10
5.5264526735
 20
-26.0233805824
 10
5.0494667706
 20
-26.1568790031
 10
4.5435579794
 20
-26.2779704752
 10
4.0116240994
 20
-26.3859613976
 10
3.456712
 20
-26.4802332082
 10
2.8820001672
 20
-26.5602459266
 10
2.2907804985
 20
-26.6255412471
 10
1.6864394465
 20
-26.675745164
 10
1.0724386221
 20
-26.7105701139
 10
0.4522949664
 20
-26.7298166227
 10
-0.170439394
 20
-26.733374448
 10
-0.7921974929
 20
-26.7212232109
 10
-1.4094179563
 20
-26.6934325127
 10
-2.0185654013
 20
-26.650161536
 10
-2.6161506864
 20
-26.5916581329
 10
-3.1987508974
 20
-26.5182574057
 10
-3.7630289529
 20
-26.4303797871
 10
-4.3057527193
 20
-26.3285286321
 10
-4.8238135241
 20
-26.213287335
 10
-5.3142439618
 20
-26.0853159874
 10
-5.7742348914
 20
-25.9453475976
 10
-6.2011515265
 20
-25.7941838919
 10
-6.5925485272
 20
-25.6326907224
 10
-6.9461840069
 20
-25.4617931071
 10
-7.2600323737
 20
-25.2824699324
 10
-7.5322959325
 20
-25.0957483449
 10
-7.7614151823
 20
-24.9026978691
 10
-7.9460777488
 20
-24.7044242806
 10
-8.0852259016
 20
-24.5020632726
 10
-8.1780626126
 20
-24.2967739507
 10
-8.2240561216
 20
-24.0897321933
 10
-8.2229429818
 20
-23.882123917
 10
-8.1747295693
 20
-23.6751382833
 10
-8.0796920462
 20
-23.469960887
 10
-7.9383747787
 20
-23.2677669656
 10
-7.7515872193
 20
-23.0697146678
 10
-7.5203992704
 20
-22.8769384191
 10
-7.2461351554
 20
-22.6905424243
 10
-6.9303658345
 20
-22.5115943429
 10
-6.5749000058
 20
-22.3411191733
 10
-6.1817737451
 20
-22.1800933819
 10
-5.7532388443
 20
-22.0294393096
 10
-5.2917499125
 20
-21.8900198895
 10
-4.7999503163
 20
-21.7626337034
 10
-4.640135932
 20
-21.7253304945
  0
LWPOLYLINE
  5
806
330
783
100
AcDbEntity
  8
0
  6
Continuous
 62
     8
370
    25
100
AcDbPolyline
 90
       20
 70
   128
 43
0.0
 10
-3.7123106004
 20
-29.5409680118
 10
-4.3600478328
 20
-29.4510052162
 10
-4.9883120331
 20
-29.3468219598
 10
-5.594297221
 20
-29.2288835505
 10
-6.1752969194
 20
-29.0977167297
 10
-6.7287162427
 20
-28.9539073203
 10
-7.2520834859
 20
-28.79809761
 10
-7.7430611637
 20
-28.6309834829
 10
-8.1994564508
 20
-28.4533113112
 10
-8.6192309748
 20
-28.2658746219
 10
-9.000509921
 20
-28.0695105528
 10
-9.341590405
 20
-27.8650961135
 10
-9.6409490785
 20
-27.6535442686
 10
-9.8972489331
 20
-27.4357998598
 10
-10.1093452713
 20
-27.2128353866
 10
-10.2762908195
 20
-26.9856466625
 10
-10.3973399583
 20
-26.7552483674
 10
-10.4719520528
 20
-26.5226695161
 10
-10.4997938673
 20
-26.2889488622
 10
-10.4999823248
 20
-26.2734398014
  0
LWPOLYLINE
  5
807
330
783
100
AcDbEntity
  8
0
  6
Continuous
 62
     8
370
    25
100
AcDbPolyline
 90
       30
 70
   128
 43
0.0
 10
10.4999718933
 20
-26.27511608
 10
10.4807410536
 20
-26.4789053393
 10
10.4148787061
 20
-26.7117776015
 10
10.302500982
 20
-26.9426634584
 10
10.1441097876
 20
-27.1705317179
 10
9.9404125363
 20
-27.3943646648
 10
9.6923189896
 20
-27.613162607
 10
9.4009371934
 20
-27.8259483397
 10
9.0675685297
 20
-28.0317715101
 10
8.6937019036
 20
-28.2297128621
 10
8.2810070945
 20
-28.4188883414
 10
7.8313272974
 20
-28.5984530446
 10
7.3466708915
 20
-28.767604992
 10
6.82920247
 20
-28.9255887099
 10
6.2812331725
 20
-29.0716986048
 10
5.7052103628
 20
-29.2052821143
 10
5.1037066986
 20
-29.3257426222
 10
4.4794086414
 20
-29.4325421225
 10
3.8351044578
 20
-29.5252036227
 10
3.1736717668
 20
-29.603313274
 10
2.4980646871
 20
-29.6665222199
 10
1.8113006442
 20
-29.7145481538
 10
1.1164468929
 20
-29.7471765803
 10
0.4166068188
 20
-29.7642617728
 10
-0.2850939225
 20
-29.7657274247
 10
-0.9855213652
 20
-29.7515669901
 10
-1.6815472302
 20
-29.721843713
 10
-2.3700628971
 20
-29.6766903446
 10
-3.0479932877
 20
-29.616308551
 10
-3.7123106004
 20
-29.5409680118
  0
LWPOLYLINE
  5
808
330
783
100
AcDbEntity
  8
0
  6
Continuous
 62
     8
370
    25
100
AcDbPolyline
 90
       37
 70
   128
 43
0.0
 10
-3.5914356045
 20
-28.98715269
 10
-2.9417614723
 20
-29.0607457172
 10
-2.2786647572
 20
-29.1195510715
 10
-1.6051710175
 20
-29.1633004378
 10
-0.9243532505
 20
-29.1917941976
 10
-0.2393178717
 20
-29.2049023404
 10
0.4468094597
 20
-29.2025650568
 10
1.130898102
 20
-29.1847930114
 10
1.8098267156
 20
-29.1516672938
 10
2.4804975051
 20
-29.1033390491
 10
3.1398503533
 20
-29.0400287881
 10
3.7848767846
 20
-28.9620253808
 10
4.4126336911
 20
-28.869684739
 10
5.0202567623
 20
-28.7634281919
 10
5.6049735532
 20
-28.6437405636
 10
6.1641161354
 20
-28.5111679615
 10
6.6951332695
 20
-28.3663152838
 10
7.1956020461
 20
-28.2098434601
 10
7.6632389409
 20
-28.0424664354
 10
8.095910234
 20
-27.8649479128
 10
8.4916417457
 20
-27.6780978685
 10
8.8486278437
 20
-27.4827688564
 10
9.1652396824
 20
-27.2798521181
 10
9.4400326345
 20
-27.070273516
 10
9.6717528829
 20
-26.8549893092
 10
9.8593431412
 20
-26.6349817902
 10
10.0019474781
 20
-26.4112548029
 10
10.0989152227
 20
-26.1848291621
 10
10.1498039335
 20
-25.9567379962
 10
10.1543814168
 20
-25.7280220327
 10
10.1126267868
 20
-25.4997248503
 10
10.0247305601
 20
-25.2728881165
 10
9.8910937872
 20
-25.0485468354
 10
9.712326222
 20
-24.8277246248
 10
9.4892435398
 20
-24.6114290458
 10
9.2228636158
 20
-24.4006470054
 10
9.0
 20
-24.2496917642
  0
LWPOLYLINE
  5
809
330
783
100
AcDbEntity
  8
0
  6
Continuous
 62
     8
370
    25
100
AcDbPolyline
 90
       27
 70
   128
 43
0.0
 10
-9.0
 20
-24.2496917642
 10
-9.0120752337
 20
-24.2574065577
 10
-9.3079464263
 20
-24.4637719613
 10
-9.5613475942
 20
-24.676324629
 10
-9.7711225261
 20
-24.8940947317
 10
-9.936314067
 20
-25.1160886344
 10
-10.0561684858
 20
-25.3412934298
 10
-10.1301389142
 20
-25.5686815602
 10
-10.1578878423
 20
-25.7972155055
 10
-10.1392886579
 20
-26.0258525179
 10
-10.074426225
 20
-26.2535493792
 10
-9.9635964958
 20
-26.4792671606
 10
-9.8073051611
 20
-26.7019759639
 10
-9.6062653424
 20
-26.9206596197
 10
-9.3613943382
 20
-27.1343203248
 10
-9.0738094387
 20
-27.3419831943
 10
-8.744822828
 20
-27.5427007102
 10
-8.3759355964
 20
-27.7355570445
 10
-7.9688308918
 20
-27.919672238
 10
-7.5253662395
 20
-28.0942062152
 10
-7.0475650672
 20
-28.2583626178
 10
-6.5376074718
 20
-28.4113924376
 10
-5.997820273
 20
-28.5525974347
 10
-5.430666396
 20
-28.6813333231
 10
-4.8387336338
 20
-28.7970127104
 10
-4.2247228398
 20
-28.8991077782
 10
-3.5914356045
 20
-28.98715269
  0
LWPOLYLINE
  5
80A
330
783
100
AcDbEntity
  8
0
  6
Continuous
 62
     8
370
    25
100
AcDbPolyline
 90
       51
 70
   128
 43
0.0
 10
9.0
 20
-24.9738582164
 10
9.0493488075
 20
-25.0785616655
 10
9.1162351694
 20
-25.2948234912
 10
9.1366672866
 20
-25.512124846
 10
9.1105410415
 20
-25.729358412
 10
9.0379895677
 20
-25.9454172168
 10
8.9193825707
 20
-26.1592002743
 10
8.7553244446
 20
-26.3696181949
 10
8.546651192
 20
-26.5755987372
 10
8.2944261641
 20
-26.7760922715
 10
7.9999346416
 20
-26.9700771288
 10
7.664677286
 20
-27.1565648068
 10
7.2903624918
 20
-27.3346050068
 10
6.8788976815
 20
-27.5032904769
 10
6.4323795854
 20
-27.6617616347
 10
5.9530835573
 20
-27.8092109473
 10
5.44345198
 20
-27.9448870469
 10
4.9060818192
 20
-28.0680985593
 10
4.3437113899
 20
-28.1782176267
 10
3.7592064031
 20
-28.2746831076
 10
3.1555453622
 20
-28.3570034361
 10
2.5358043854
 20
-28.4247591267
 10
1.9031415307
 20
-28.4776049119
 10
1.2607807031
 20
-28.5152715016
 10
0.6119952259
 20
-28.5375669555
 10
-0.0399088386
 20
-28.5443776612
 10
-0.6916095369
 20
-28.5356689129
 10
-1.3397859514
 20
-28.5114850883
 10
-1.9811351239
 20
-28.4719494226
 10
-2.6123888859
 20
-28.4172633806
 10
-3.2303305129
 20
-28.3477056298
 10
-3.8318111162
 20
-28.2636306205
 10
-4.4137656882
 20
-28.1654667797
 10
-4.9732287221
 20
-28.0537143278
 10
-5.5073493224
 20
-27.9289427298
 10
-6.0134057329
 20
-27.7917877931
 10
-6.4888192062
 20
-27.6429484277
 10
-6.9311671442
 20
-27.4831830851
 10
-7.3381954432
 20
-27.3133058927
 10
-7.7078299803
 20
-27.1341825058
 10
-8.0381871826
 20
-26.9467256961
 10
-8.3275836255
 20
-26.7518907005
 10
-8.5745446111
 20
-26.5506703536
 10
-8.7778116829
 20
-26.3440900281
 10
-8.9363490383
 20
-26.1332024099
 10
-9.0493488075
 20
-25.919082134
 10
-9.1162351694
 20
-25.7028203084
 10
-9.1366672866
 20
-25.4855189536
 10
-9.1105410415
 20
-25.2682853875
 10
-9.0379895677
 20
-25.0522265827
 10
-9.0
 20
-24.9738582164
  0
LWPOLYLINE
  5
80B
330
783
100
AcDbEntity
  8
0
  6
Continuous
 62
     8
370
    25
100
AcDbPolyline
 90
       18
 70
   128
 43
0.0
 10
-3.1819805146
 20
-27.0237103315
 10
-3.7811624281
 20
-26.939860248
 10
-4.3606311116
 20
-26.8418168681
 10
-4.9173654835
 20
-26.7300913448
 10
-5.4484629887
 20
-26.605266163
 10
-5.9511547308
 20
-26.4679921036
 10
-6.4228199076
 20
-26.3189848499
 10
-6.8609994755
 20
-26.1590212567
 10
-7.263408969
 20
-25.9889353002
 10
-7.6279504113
 20
-25.8096137297
 10
-7.9527232522
 20
-25.6219914449
 10
-8.2360342765
 20
-25.4270466215
 10
-8.4764064317
 20
-25.2257956116
 10
-8.6725865285
 20
-25.0192876447
 10
-8.823551775
 20
-24.8085993578
 10
-8.9285151081
 20
-24.594829182
 10
-8.9869292976
 20
-24.379091616
 10
-8.9999794479
 20
-24.2110560389
  0
LWPOLYLINE
  5
80C
330
783
100
AcDbEntity
  8
0
  6
Continuous
 62
     8
370
    25
100
AcDbPolyline
 90
       28
 70
   128
 43
0.0
 10
9.0
 20
-24.217467292
 10
8.9866715229
 20
-24.3806764081
 10
8.9279149401
 20
-24.5964036427
 10
8.8226123429
 20
-24.8101552787
 10
8.67131273
 20
-25.0208169139
 10
8.4748049077
 20
-25.2272902562
 10
8.2341133768
 20
-25.4284988491
 10
7.9504929914
 20
-25.6233936843
 10
7.6254224169
 20
-25.8109586702
 10
7.2605964208
 20
-25.99021593
 10
6.8579170368
 20
-26.1602308991
 10
6.4194836489
 20
-26.3201171984
 10
5.9475820457
 20
-26.4690412547
 10
5.4446725037
 20
-26.606226647
 10
4.9133769603
 20
-26.730958154
 10
4.3564653445
 20
-26.8425854835
 10
3.7768411355
 20
-26.9405266622
 10
3.1775262258
 20
-27.0242710703
 10
2.5616451655
 20
-27.0933821032
 10
1.9324088736
 20
-27.1474994478
 10
1.2930978965
 20
-27.1863409615
 10
0.6470453058
 20
-27.2097041426
 10
-0.0023806796
 20
-27.2174671863
 10
-0.6517942532
 20
-27.2095896196
 10
-1.2978096734
 20
-27.1861125126
 10
-1.9370589148
 20
-27.147158264
 10
-2.5662092281
 20
-27.0929299632
 10
-3.1819805146
 20
-27.0237103315
  0
LWPOLYLINE
  5
80D
330
783
100
AcDbEntity
  8
0
  6
Continuous
 62
     8
370
    25
100
AcDbPolyline
 90
       42
 70
   128
 43
0.0
 10
-3.1162023641
 20
-26.7775969742
 10
-2.5060650054
 20
-26.8460881944
 10
-1.8825567056
 20
-26.8995509766
 10
-1.2490041512
 20
-26.9377000738
 10
-0.6087876193
 20
-26.960331944
 10
0.034677058
 20
-26.9673258363
 10
0.6779567182
 20
-26.9586444355
 10
1.3176191859
 20
-26.9343340604
 10
1.9502515852
 20
-26.8945244174
 10
2.5724785485
 20
-26.8394279083
 10
3.1809802257
 20
-26.7693384967
 10
3.772509997
 20
-26.68463014
 10
4.3439117952
 20
-26.5857547939
 10
4.8921369446
 20
-26.4732400012
 10
5.4142604266
 20
-26.3476860769
 10
5.9074964866
 20
-26.2097629056
 10
6.3692134969
 20
-26.060206367
 10
6.7969479974
 20
-25.8998144101
 10
7.1884178395
 20
-25.7294427952
 10
7.5415343621
 20
-25.5500005287
 10
7.8544135359
 20
-25.3624450128
 10
8.1253860151
 20
-25.1677769371
 10
8.3530060443
 20
-24.9670349403
 10
8.5360591721
 20
-24.7612900675
 10
8.673568731
 20
-24.5516400569
 10
8.7648010478
 20
-24.3392034818
 10
8.8092693587
 20
-24.1251137834
 10
8.8067364061
 20
-23.9105132227
 10
8.7572157043
 20
-23.6965467867
 10
8.6609714677
 20
-23.4843560789
 10
8.518517201
 20
-23.2750732285
 10
8.3306129593
 20
-23.06981485
 10
8.098261293
 20
-22.8696760857
 10
7.8227018988
 20
-22.6757247625
 10
7.5054050053
 20
-22.4889956947
 10
7.1480635287
 20
-22.3104851626
 10
6.7525840404
 20
-22.1411455971
 10
6.3210765946
 20
-21.9818804982
 10
5.8558434702
 20
-21.8335396139
 10
5.3593668873
 20
-21.6969144071
 10
4.8342957631
 20
-21.5727338324
 10
4.4885019549
 20
-21.5008806887
  0
LWPOLYLINE
  5
80E
330
783
100
AcDbEntity
  8
0
  6
Continuous
 62
     8
370
    25
100
AcDbPolyline
 90
       32
 70
   128
 43
0.0
 10
-4.4765158571
 20
-21.4985207886
 10
-4.8921369446
 20
-21.5854896204
 10
-5.4142604266
 20
-21.7110435446
 10
-5.9074964866
 20
-21.848966716
 10
-6.3692134969
 20
-21.9985232545
 10
-6.7969479974
 20
-22.1589152114
 10
-7.1884178395
 20
-22.3292868263
 10
-7.5415343621
 20
-22.5087290928
 10
-7.8544135359
 20
-22.6962846087
 10
-8.1253860151
 20
-22.8909526844
 10
-8.3530060443
 20
-23.0916946812
 10
-8.5360591721
 20
-23.297439554
 10
-8.673568731
 20
-23.5070895646
 10
-8.7648010478
 20
-23.7195261397
 10
-8.8092693587
 20
-23.9336158382
 10
-8.8067364061
 20
-24.1482163988
 10
-8.7572157043
 20
-24.3621828348
 10
-8.6609714677
 20
-24.5743735426
 10
-8.518517201
 20
-24.7836563931
 10
-8.3306129593
 20
-24.9889147715
 10
-8.098261293
 20
-25.1890535358
 10
-7.8227018988
 20
-25.383004859
 10
-7.5054050053
 20
-25.5697339268
 10
-7.1480635287
 20
-25.7482444589
 10
-6.7525840404
 20
-25.9175840244
 10
-6.3210765946
 20
-26.0768491234
 10
-5.8558434702
 20
-26.2251900076
 10
-5.3593668873
 20
-26.3618152144
 10
-4.8342957631
 20
-26.4859957891
 10
-4.2834315794
 20
-26.5970691746
 10
-3.7097134349
 20
-26.6944427464
 10
-3.1162023641
 20
-26.7775969742
  0
LWPOLYLINE
  5
80F
330
783
100
AcDbEntity
  8
0
  6
Continuous
 62
     8
370
    25
100
AcDbPolyline
 90
       46
 70
   128
 43
0.0
 10
-8.9991153995
 20
-25.3619972997
 10
-8.9985757614
 20
-25.3733054769
 10
-8.9635655926
 20
-25.589605367
 10
-8.8818235433
 20
-25.8044993282
 10
-8.7537757785
 20
-26.0168670031
 10
-8.5800898802
 20
-26.2256012048
 10
-8.3616713662
 20
-26.4296136898
 10
-8.0996589694
 20
-26.6278408317
 10
-7.7954187012
 20
-26.8192491657
 10
-7.4505367294
 20
-27.0028407776
 10
-7.066811109
 20
-27.1776585056
 10
-6.6462424076
 20
-27.342790931
 10
-6.1910232758
 20
-27.4973771299
 10
-5.7035270153
 20
-27.6406111614
 10
-5.1862952059
 20
-27.7717462696
 10
-4.6420244547
 20
-27.8900987767
 10
-4.0735523374
 20
-27.9950516475
 10
-3.4838426044
 20
-28.0860577065
 10
-2.8759697293
 20
-28.1626424901
 10
-2.2531028796
 20
-28.2244067207
 10
-1.6184893948
 20
-28.2710283883
 10
-0.9754378557
 20
-28.3022644291
 10
-0.3273008353
 20
-28.3179519927
 10
0.3225425801
 20
-28.3180092916
 10
0.9707044078
 20
-28.3024360269
 10
1.6138054322
 20
-28.2713133905
 10
2.2484928224
 20
-28.2248036414
 10
2.8714576121
 20
-28.1631492599
 10
3.4794519514
 20
-28.0866716833
 10
4.0693060394
 20
-27.9957696304
 10
4.6379446499
 20
-27.8909170224
 10
5.1824031645
 20
-27.7726605122
 10
5.6998430286
 20
-27.6416166344
 10
6.1875665505
 20
-27.4984685913
 10
6.6430309654
 20
-27.3439626904
 10
7.0638616928
 20
-27.1789044539
 10
7.4478647162
 20
-27.0041544191
 10
7.7930380216
 20
-26.8206236517
 10
8.0975820352
 20
-26.6292689962
 10
8.3599090055
 20
-26.4310880871
 10
8.5786512812
 20
-26.227114148
 10
8.7526684414
 20
-26.0184106044
 10
8.8810532411
 20
-25.8060655401
 10
8.9631363414
 20
-25.5911860238
 10
8.9984897991
 20
-25.3748923379
 10
8.9998056166
 20
-25.3396535265
  0
LINE
  5
810
330
783
100
AcDbEntity
  8
0
  6
Continuous
 62
     7
370
    25
100
AcDbLine
 10
10.5
 20
-14.4738411389
 30
0.0
 11
10.5
 21
-13.4719557392
 31
0.0
  0
LINE
  5
811
330
783
100
AcDbEntity
  8
0
  6
Continuous
 62
     7
370
    25
100
AcDbLine
 10
-10.5
 20
-13.2124358099
 30
0.0
 11
-10.5
 21
-14.4738411389
 31
0.0
  0
LINE
  5
812
330
783
100
AcDbEntity
  8
0
  6
Continuous
 62
     7
370
    25
100
AcDbLine
 10
10.5
 20
-28.2842712483
 30
0.0
 11
10.5
 21
-26.267017799
 31
0.0
  0
LINE
  5
813
330
783
100
AcDbEntity
  8
0
  6
Continuous
 62
     7
370
    25
100
AcDbLine
 10
-10.5
 20
-26.267017799
 30
0.0
 11
-10.5
 21
-28.2842712483
 31
0.0
  0
LINE
  5
814
330
783
100
AcDbEntity
  8
0
  6
Continuous
 62
     7
370
    25
100
AcDbLine
 10
9.0
 20
-25.3199364616
 30
0.0
 11
9.0
 21
-24.217467292
 31
0.0
  0
LINE
  5
815
330
783
100
AcDbEntity
  8
0
  6
Continuous
 62
     7
370
    25
100
AcDbLine
 10
-9.0
 20
-24.217467292
 30
0.0
 11
-9.0
 21
-25.3199364616
 31
0.0
  0
LINE
  5
816
330
783
100
AcDbEntity
  8
0
  6
Continuous
 62
     7
370
    25
100
AcDbLine
 10
10.4991343695
 20
-14.5187824489
 30
0.0
 11
10.5
 21
-14.4738411389
 31
0.0
  0
LINE
  5
817
330
783
100
AcDbEntity
  8
0
  6
Continuous
 62
     7
370
    25
100
AcDbLine
 10
10.5
 20
-26.267017799
 30
0.0
 11
10.4999718933
 21
-26.27511608
 31
0.0
  0
LINE
  5
818
330
783
100
AcDbEntity
  8
0
  6
Continuous
 62
     7
370
    25
100
AcDbLine
 10
8.9999638424
 20
-24.2089634638
 30
0.0
 11
9.0
 21
-24.217467292
 31
0.0
  0
LINE
  5
819
330
783
100
AcDbEntity
  8
0
  6
Continuous
 62
     7
370
    25
100
AcDbLine
 10
-9.0
 20
-25.3199364616
 30
0.0
 11
-8.9991153995
 21
-25.3619972997
 31
0.0
  0
LINE
  5
81A
330
783
100
AcDbEntity
  8
0
  6
Continuous
 62
     7
370
    25
100
AcDbLine
 10
8.9998056166
 20
-25.3396535265
 30
0.0
 11
9.0
 21
-25.3199364616
 31
0.0
  0
LINE
  5
81B
330
783
100
AcDbEntity
  8
0
  6
Continuous
 62
     7
370
    25
100
AcDbLine
 10
-1.5951030116
 20
1.7486329037
 30
0.0
 11
6.6022526348
 21
2.1958534695
 31
0.0
  0
LINE
  5
81C
330
783
100
AcDbEntity
  8
0
  6
Continuous
 62
     7
370
    25
100
AcDbLine
 10
1.797602078
 20
8.5954894383
 30
0.0
 11
-1.5951030116
 21
1.7486329037
 31
0.0
  0
LINE
  5
81D
330
783
100
AcDbEntity
  8
0
  6
Continuous
 62
     7
370
    25
100
AcDbLine
 10
1.797602078
 20
8.5954894383
 30
0.0
 11
6.6022526348
 21
2.1958534695
 31
0.0
  0
LINE
  5
81E
330
783
100
AcDbEntity
  8
0
  6
Continuous
 62
     7
370
    25
100
AcDbLine
 10
10.9822523671
 20
-4.4733297822
 30
0.0
 11
6.6022526348
 21
2.1958534695
 31
0.0
  0
LINE
  5
81F
330
783
100
AcDbEntity
  8
0
  6
Continuous
 62
     7
370
    25
100
AcDbLine
 10
10.9822523671
 20
-4.4733297822
 30
0.0
 11
2.8009148657
 21
-5.704392625
 31
0.0
  0
LINE
  5
820
330
783
100
AcDbEntity
  8
0
  6
Continuous
 62
     7
370
    25
100
AcDbLine
 10
2.8009148657
 20
-5.704392625
 30
0.0
 11
6.6022526348
 21
2.1958534695
 31
0.0
  0
LINE
  5
821
330
783
100
AcDbEntity
  8
0
  6
Continuous
 62
     7
370
    25
100
AcDbLine
 10
2.8009148657
 20
-5.704392625
 30
0.0
 11
-1.5951030116
 21
1.7486329037
 31
0.0
  0
LINE
  5
822
330
783
100
AcDbEntity
  8
0
  6
Continuous
 62
     7
370
    25
100
AcDbLine
 10
2.8009148657
 20
-5.704392625
 30
0.0
 11
-6.130925512
 21
-5.4069680706
 31
0.0
  0
LINE
  5
823
330
783
100
AcDbEntity
  8
0
  6
Continuous
 62
     7
370
    25
100
AcDbLine
 10
-6.130925512
 20
-5.4069680706
 30
0.0
 11
-1.5951030116
 21
1.7486329037
 31
0.0
  0
LINE
  5
824
330
783
100
AcDbEntity
  8
0
  6
Continuous
 62
     7
370
    25
100
AcDbLine
 10
-3.9347730898
 20
8.7863738538
 30
0.0
 11
1.797602078
 21
8.5954894383
 31
0.0
  0
LINE
  5
825
330
783
100
AcDbEntity
  8
0
  6
Continuous
 62
     7
370
    25
100
AcDbLine
 10
-3.9347730898
 20
8.7863738538
 30
0.0
 11
-1.5951030116
 21
1.7486329037
 31
0.0
  0
LINE
  5
826
330
783
100
AcDbEntity
  8
0
  6
Continuous
 62
     7
370
    25
100
AcDbLine
 10
6.6022526348
 20
2.1958534695
 30
0.0
 11
13.0305400195
 21
3.9493837814
 31
0.0
  0
LINE
  5
827
330
783
100
AcDbEntity
  8
0
  6
Continuous
 62
     7
370
    25
100
AcDbLine
 10
7.0483112207
 20
9.3855745464
 30
0.0
 11
6.6022526348
 21
2.1958534695
 31
0.0
  0
LINE
  5
828
330
783
100
AcDbEntity
  8
0
  6
Continuous
 62
     7
370
    25
100
AcDbLine
 10
7.0483112207
 20
9.3855745464
 30
0.0
 11
13.0305400195
 21
3.9493837814
 31
0.0
  0
LINE
  5
829
330
783
100
AcDbEntity
  8
0
  6
Continuous
 62
     7
370
    25
100
AcDbLine
 10
-9.3650520942
 20
2.7275544733
 30
0.0
 11
-1.5951030116
 21
1.7486329037
 31
0.0
  0
LINE
  5
82A
330
783
100
AcDbEntity
  8
0
  6
Continuous
 62
     7
370
    25
100
AcDbLine
 10
-3.9347730898
 20
8.7863738538
 30
0.0
 11
-9.3650520942
 21
2.7275544733
 31
0.0
  0
LINE
  5
82B
330
783
100
AcDbEntity
  8
0
  6
Continuous
 62
     7
370
    25
100
AcDbLine
 10
-6.130925512
 20
-5.4069680706
 30
0.0
 11
-9.3650520942
 21
2.7275544733
 31
0.0
  0
LINE
  5
82C
330
783
100
AcDbEntity
  8
0
  6
Continuous
 62
     7
370
    25
100
AcDbLine
 10
10.9822523671
 20
-4.4733297822
 30
0.0
 11
6.6022526348
 21
-11.9462821546
 31
0.0
  0
LINE
  5
82D
330
783
100
AcDbEntity
  8
0
  6
Continuous
 62
     7
370
    25
100
AcDbLine
 10
2.8009148657
 20
-5.704392625
 30
0.0
 11
6.6022526348
 21
-11.9462821546
 31
0.0
  0
LINE
  5
82E
330
783
100
AcDbEntity
  8
0
  6
Continuous
 62
     7
370
    25
100
AcDbLine
 10
2.8009148657
 20
-5.704392625
 30
0.0
 11
-1.5951030116
 21
-12.3935027205
 31
0.0
  0
LINE
  5
82F
330
783
100
AcDbEntity
  8
0
  6
Continuous
 62
     7
370
    25
100
AcDbLine
 10
-6.130925512
 20
-5.4069680706
 30
0.0
 11
-1.5951030116
 21
-12.3935027205
 31
0.0
  0
LINE
  5
830
330
783
100
AcDbEntity
  8
0
  6
Continuous
 62
     7
370
    25
100
AcDbLine
 10
1.797602078
 20
8.5954894383
 30
0.0
 11
7.0483112207
 21
9.3855745464
 31
0.0
  0
LINE
  5
831
330
783
100
AcDbEntity
  8
0
  6
Continuous
 62
     7
370
    25
100
AcDbLine
 10
-8.6128289858
 20
9.9070804679
 30
0.0
 11
-3.9347730898
 21
8.7863738538
 31
0.0
  0
LINE
  5
832
330
783
100
AcDbEntity
  8
0
  6
Continuous
 62
     7
370
    25
100
AcDbLine
 10
-9.3650520942
 20
2.7275544733
 30
0.0
 11
-8.6128289858
 21
9.9070804679
 31
0.0
  0
LINE
  5
833
330
783
100
AcDbEntity
  8
0
  6
Continuous
 62
     7
370
    25
100
AcDbLine
 10
-6.130925512
 20
-5.4069680706
 30
0.0
 11
-13.4199893499
 21
-3.6607507882
 31
0.0
  0
LINE
  5
834
330
783
100
AcDbEntity
  8
0
  6
Continuous
 62
     7
370
    25
100
AcDbLine
 10
-9.3650520942
 20
2.7275544733
 30
0.0
 11
-13.4199893499
 21
-3.6607507882
 31
0.0
  0
LINE
  5
835
330
783
100
AcDbEntity
  8
0
  6
Continuous
 62
     7
370
    25
100
AcDbLine
 10
10.9822523671
 20
-4.4733297822
 30
0.0
 11
13.0305400195
 21
3.9493837814
 31
0.0
  0
LINE
  5
836
330
783
100
AcDbEntity
  8
0
  6
Continuous
 62
     7
370
    25
100
AcDbLine
 10
-1.5951030116
 20
-12.3935027205
 30
0.0
 11
6.6022526348
 21
-11.9462821546
 31
0.0
  0
LINE
  5
837
330
783
100
AcDbEntity
  8
0
  6
Continuous
 62
     7
370
    25
100
AcDbLine
 10
0.0
 20
15.5563491866
 30
0.0
 11
7.0483112207
 21
9.3855745464
 31
0.0
  0
LINE
  5
838
330
783
100
AcDbEntity
  8
0
  6
Continuous
 62
     7
370
    25
100
AcDbLine
 10
0.0
 20
15.5563491866
 30
0.0
 11
1.797602078
 21
8.5954894383
 31
0.0
  0
LINE
  5
839
330
783
100
AcDbEntity
  8
0
  6
Continuous
 62
     7
370
    25
100
AcDbLine
 10
0.0
 20
15.5563491866
 30
0.0
 11
-3.9347730898
 21
8.7863738538
 31
0.0
  0
LINE
  5
83A
330
783
100
AcDbEntity
  8
0
  6
Continuous
 62
     7
370
    25
100
AcDbLine
 10
-9.3650520942
 20
-11.4145811509
 30
0.0
 11
-1.5951030116
 21
-12.3935027205
 31
0.0
  0
LINE
  5
83B
330
783
100
AcDbEntity
  8
0
  6
Continuous
 62
     7
370
    25
100
AcDbLine
 10
-6.130925512
 20
-5.4069680706
 30
0.0
 11
-9.3650520942
 21
-11.4145811509
 31
0.0
  0
LINE
  5
83C
330
783
100
AcDbEntity
  8
0
  6
Continuous
 62
     7
370
    25
100
AcDbLine
 10
-14.6256430311
 20
4.8703169343
 30
0.0
 11
-9.3650520942
 21
2.7275544733
 31
0.0
  0
LINE
  5
83D
330
783
100
AcDbEntity
  8
0
  6
Continuous
 62
     7
370
    25
100
AcDbLine
 10
-14.6256430311
 20
4.8703169343
 30
0.0
 11
-8.6128289858
 21
9.9070804679
 31
0.0
  0
LINE
  5
83E
330
783
100
AcDbEntity
  8
0
  6
Continuous
 62
     7
370
    25
100
AcDbLine
 10
16.2209042156
 20
-2.0436418368
 30
0.0
 11
13.0305400195
 21
3.9493837814
 31
0.0
  0
LINE
  5
83F
330
783
100
AcDbEntity
  8
0
  6
Continuous
 62
     7
370
    25
100
AcDbLine
 10
16.2209042156
 20
-2.0436418368
 30
0.0
 11
10.9822523671
 21
-4.4733297822
 31
0.0
  0
LINE
  5
840
330
783
100
AcDbEntity
  8
0
  6
Continuous
 62
     7
370
    25
100
AcDbLine
 10
0.0
 20
15.5563491866
 30
0.0
 11
-8.6128289858
 21
9.9070804679
 31
0.0
  0
LINE
  5
841
330
783
100
AcDbEntity
  8
0
  6
Continuous
 62
     7
370
    25
100
AcDbLine
 10
-9.3650520942
 20
-11.4145811509
 30
0.0
 11
-13.4199893499
 21
-3.6607507882
 31
0.0
  0
LINE
  5
842
330
783
100
AcDbEntity
  8
0
  6
Continuous
 62
     7
370
    25
100
AcDbLine
 10
6.6022526348
 20
-11.9462821546
 30
0.0
 11
13.0305400195
 21
-10.1927518427
 31
0.0
  0
LINE
  5
843
330
783
100
AcDbEntity
  8
0
  6
Continuous
 62
     7
370
    25
100
AcDbLine
 10
10.9822523671
 20
-4.4733297822
 30
0.0
 11
13.0305400195
 21
-10.1927518427
 31
0.0
  0
LINE
  5
844
330
783
100
AcDbEntity
  8
0
  6
Continuous
 62
     7
370
    25
100
AcDbLine
 10
1.797602078
 20
-15.9175456435
 30
0.0
 11
-1.5951030116
 21
-12.3935027205
 31
0.0
  0
LINE
  5
845
330
783
100
AcDbEntity
  8
0
  6
Continuous
 62
     7
370
    25
100
AcDbLine
 10
1.797602078
 20
-15.9175456435
 30
0.0
 11
6.6022526348
 21
-11.9462821546
 31
0.0
  0
LINE
  5
846
330
783
100
AcDbEntity
  8
0
  6
Continuous
 62
     7
370
    25
100
AcDbLine
 10
-14.6256430311
 20
4.8703169343
 30
0.0
 11
-13.4199893499
 21
-3.6607507882
 31
0.0
  0
LINE
  5
847
330
783
100
AcDbEntity
  8
0
  6
Continuous
 62
     7
370
    25
100
AcDbLine
 10
7.0483112207
 20
9.3855745464
 30
0.0
 11
10.4104310638
 21
10.9449265113
 31
0.0
  0
LINE
  5
848
330
783
100
AcDbEntity
  8
0
  6
Continuous
 62
     7
370
    25
100
AcDbLine
 10
10.4104310638
 20
10.9449265113
 30
0.0
 11
13.0305400195
 21
3.9493837814
 31
0.0
  0
LINE
  5
849
330
783
100
AcDbEntity
  8
0
  6
Continuous
 62
     7
370
    25
100
AcDbLine
 10
0.0
 20
15.5563491866
 30
0.0
 11
10.4104310638
 21
10.9449265113
 31
0.0
  0
LINE
  5
84A
330
783
100
AcDbEntity
  8
0
  6
Continuous
 62
     7
370
    25
100
AcDbLine
 10
-10.9830843104
 20
11.6573168484
 30
0.0
 11
-8.6128289858
 21
9.9070804679
 31
0.0
  0
LINE
  5
84B
330
783
100
AcDbEntity
  8
0
  6
Continuous
 62
     7
370
    25
100
AcDbLine
 10
0.0
 20
15.5563491866
 30
0.0
 11
-10.9830843104
 21
11.6573168484
 31
0.0
  0
LINE
  5
84C
330
783
100
AcDbEntity
  8
0
  6
Continuous
 62
     7
370
    25
100
AcDbLine
 10
16.2209042156
 20
-2.0436418368
 30
0.0
 11
13.0305400195
 21
-10.1927518427
 31
0.0
  0
LINE
  5
84D
330
783
100
AcDbEntity
  8
0
  6
Continuous
 62
     7
370
    25
100
AcDbLine
 10
13.0305400195
 20
3.9493837814
 30
0.0
 11
15.967304729
 21
6.5393668083
 31
0.0
  0
LINE
  5
84E
330
783
100
AcDbEntity
  8
0
  6
Continuous
 62
     7
370
    25
100
AcDbLine
 10
10.4104310638
 20
10.9449265113
 30
0.0
 11
15.967304729
 21
6.5393668083
 31
0.0
  0
LINE
  5
84F
330
783
100
AcDbEntity
  8
0
  6
Continuous
 62
     7
370
    25
100
AcDbLine
 10
-3.9347730898
 20
-15.726661228
 30
0.0
 11
1.797602078
 21
-15.9175456435
 31
0.0
  0
LINE
  5
850
330
783
100
AcDbEntity
  8
0
  6
Continuous
 62
     7
370
    25
100
AcDbLine
 10
-3.9347730898
 20
-15.726661228
 30
0.0
 11
-1.5951030116
 21
-12.3935027205
 31
0.0
  0
LINE
  5
851
330
783
100
AcDbEntity
  8
0
  6
Continuous
 62
     7
370
    25
100
AcDbLine
 10
-13.4199893499
 20
-3.6607507882
 30
0.0
 11
-17.1131778791
 21
-0.9336382884
 31
0.0
  0
LINE
  5
852
330
783
100
AcDbEntity
  8
0
  6
Continuous
 62
     7
370
    25
100
AcDbLine
 10
-14.6256430311
 20
4.8703169343
 30
0.0
 11
-17.1131778791
 21
-0.9336382884
 31
0.0
  0
LINE
  5
853
330
783
100
AcDbEntity
  8
0
  6
Continuous
 62
     7
370
    25
100
AcDbLine
 10
7.0483112207
 20
-15.1274605355
 30
0.0
 11
6.6022526348
 21
-11.9462821546
 31
0.0
  0
LINE
  5
854
330
783
100
AcDbEntity
  8
0
  6
Continuous
 62
     7
370
    25
100
AcDbLine
 10
7.0483112207
 20
-15.1274605355
 30
0.0
 11
13.0305400195
 21
-10.1927518427
 31
0.0
  0
LINE
  5
855
330
783
100
AcDbEntity
  8
0
  6
Continuous
 62
     7
370
    25
100
AcDbLine
 10
-3.9347730898
 20
-15.726661228
 30
0.0
 11
-9.3650520942
 21
-11.4145811509
 31
0.0
  0
LINE
  5
856
330
783
100
AcDbEntity
  8
0
  6
Continuous
 62
     7
370
    25
100
AcDbLine
 10
-14.6256430311
 20
4.8703169343
 30
0.0
 11
-10.9830843104
 21
11.6573168484
 31
0.0
  0
LINE
  5
857
330
783
100
AcDbEntity
  8
0
  6
Continuous
 62
     7
370
    25
100
AcDbLine
 10
-14.6256430311
 20
-9.2718186898
 30
0.0
 11
-9.3650520942
 21
-11.4145811509
 31
0.0
  0
LINE
  5
858
330
783
100
AcDbEntity
  8
0
  6
Continuous
 62
     7
370
    25
100
AcDbLine
 10
-14.6256430311
 20
-9.2718186898
 30
0.0
 11
-13.4199893499
 21
-3.6607507882
 31
0.0
  0
LINE
  5
859
330
783
100
AcDbEntity
  8
0
  6
Continuous
 62
     7
370
    25
100
AcDbLine
 10
16.2209042156
 20
-2.0436418368
 30
0.0
 11
15.967304729
 21
6.5393668083
 31
0.0
  0
LINE
  5
85A
330
783
100
AcDbEntity
  8
0
  6
Continuous
 62
     7
370
    25
100
AcDbLine
 10
1.797602078
 20
-15.9175456435
 30
0.0
 11
7.0483112207
 21
-15.1274605355
 31
0.0
  0
LINE
  5
85B
330
783
100
AcDbEntity
  8
0
  6
Continuous
 62
     7
370
    25
100
AcDbLine
 10
-8.6128289858
 20
-14.6059546139
 30
0.0
 11
-3.9347730898
 21
-15.726661228
 31
0.0
  0
LINE
  5
85C
330
783
100
AcDbEntity
  8
0
  6
Continuous
 62
     7
370
    25
100
AcDbLine
 10
-9.3650520942
 20
-11.4145811509
 30
0.0
 11
-8.6128289858
 21
-14.6059546139
 31
0.0
  0
LINE
  5
85D
330
783
100
AcDbEntity
  8
0
  6
Continuous
 62
     7
370
    25
100
AcDbLine
 10
-15.967304729
 20
7.6027688158
 30
0.0
 11
-14.6256430311
 21
4.8703169343
 31
0.0
  0
LINE
  5
85E
330
783
100
AcDbEntity
  8
0
  6
Continuous
 62
     7
370
    25
100
AcDbLine
 10
-15.967304729
 20
7.6027688158
 30
0.0
 11
-10.9830843104
 21
11.6573168484
 31
0.0
  0
LINE
  5
85F
330
783
100
AcDbEntity
  8
0
  6
Continuous
 62
     7
370
    25
100
AcDbLine
 10
-10.4104310638
 20
13.5681085705
 30
0.0
 11
-10.9830843104
 21
11.6573168484
 31
0.0
  0
LINE
  5
860
330
783
100
AcDbEntity
  8
0
  6
Continuous
 62
     7
370
    25
100
AcDbLine
 10
0.0
 20
15.5563491866
 30
0.0
 11
-10.4104310638
 21
13.5681085705
 31
0.0
  0
LINE
  5
861
330
783
100
AcDbEntity
  8
0
  6
Continuous
 62
     7
370
    25
100
AcDbLine
 10
-14.6256430311
 20
-9.2718186898
 30
0.0
 11
-17.1131778791
 21
-0.9336382884
 31
0.0
  0
LINE
  5
862
330
783
100
AcDbEntity
  8
0
  6
Continuous
 62
     7
370
    25
100
AcDbLine
 10
-14.6256430311
 20
-9.2718186898
 30
0.0
 11
-8.6128289858
 21
-14.6059546139
 31
0.0
  0
LINE
  5
863
330
783
100
AcDbEntity
  8
0
  6
Continuous
 62
     7
370
    25
100
AcDbLine
 10
10.4104310638
 20
10.9449265113
 30
0.0
 11
10.9830843104
 21
12.8557182335
 31
0.0
  0
LINE
  5
864
330
783
100
AcDbEntity
  8
0
  6
Continuous
 62
     7
370
    25
100
AcDbLine
 10
10.9830843104
 20
12.8557182335
 30
0.0
 11
15.967304729
 21
6.5393668083
 31
0.0
  0
LINE
  5
865
330
783
100
AcDbEntity
  8
0
  6
Continuous
 62
     7
370
    25
100
AcDbLine
 10
13.0305400195
 20
-10.1927518427
 30
0.0
 11
15.967304729
 21
-7.6027688158
 31
0.0
  0
LINE
  5
866
330
783
100
AcDbEntity
  8
0
  6
Continuous
 62
     7
370
    25
100
AcDbLine
 10
16.2209042156
 20
-2.0436418368
 30
0.0
 11
15.967304729
 21
-7.6027688158
 31
0.0
  0
LINE
  5
867
330
783
100
AcDbEntity
  8
0
  6
Continuous
 62
     7
370
    25
100
AcDbLine
 10
0.0
 20
15.5563491866
 30
0.0
 11
10.9830843104
 21
12.8557182335
 31
0.0
  0
LINE
  5
868
330
783
100
AcDbEntity
  8
0
  6
Continuous
 62
     7
370
    25
100
AcDbLine
 10
-15.967304729
 20
7.6027688158
 30
0.0
 11
-17.1131778791
 21
-0.9336382884
 31
0.0
  0
LINE
  5
869
330
783
100
AcDbEntity
  8
0
  6
Continuous
 62
     7
370
    25
100
AcDbLine
 10
0.0
 20
15.5563491866
 30
0.0
 11
8.6128289858
 21
14.6059546139
 31
0.0
  0
LINE
  5
86A
330
783
100
AcDbEntity
  8
0
  6
Continuous
 62
     7
370
    25
100
AcDbLine
 10
10.9830843104
 20
12.8557182335
 30
0.0
 11
8.6128289858
 21
14.6059546139
 31
0.0
  0
LINE
  5
86B
330
783
100
AcDbEntity
  8
0
  6
Continuous
 62
     7
370
    25
100
AcDbLine
 10
17.1131778791
 20
0.9336382884
 30
0.0
 11
15.967304729
 21
6.5393668083
 31
0.0
  0
LINE
  5
86C
330
783
100
AcDbEntity
  8
0
  6
Continuous
 62
     7
370
    25
100
AcDbLine
 10
17.1131778791
 20
0.9336382884
 30
0.0
 11
16.2209042156
 21
-2.0436418368
 31
0.0
  0
LINE
  5
86D
330
783
100
AcDbEntity
  8
0
  6
Continuous
 62
     7
370
    25
100
AcDbLine
 10
10.4104310638
 20
-13.5681085705
 30
0.0
 11
13.0305400195
 21
-10.1927518427
 31
0.0
  0
LINE
  5
86E
330
783
100
AcDbEntity
  8
0
  6
Continuous
 62
     7
370
    25
100
AcDbLine
 10
7.0483112207
 20
-15.1274605355
 30
0.0
 11
10.4104310638
 21
-13.5681085705
 31
0.0
  0
LINE
  5
86F
330
783
100
AcDbEntity
  8
0
  6
Continuous
 62
     7
370
    25
100
AcDbLine
 10
0.0
 20
15.5563491866
 30
0.0
 11
3.9347730898
 21
15.726661228
 31
0.0
  0
LINE
  5
870
330
783
100
AcDbEntity
  8
0
  6
Continuous
 62
     7
370
    25
100
AcDbLine
 10
8.6128289858
 20
14.6059546139
 30
0.0
 11
3.9347730898
 21
15.726661228
 31
0.0
  0
LINE
  5
871
330
783
100
AcDbEntity
  8
0
  6
Continuous
 62
     7
370
    25
100
AcDbLine
 10
10.4104310638
 20
-13.5681085705
 30
0.0
 11
15.967304729
 21
-7.6027688158
 31
0.0
  0
LINE
  5
872
330
783
100
AcDbEntity
  8
0
  6
Continuous
 62
     7
370
    25
100
AcDbLine
 10
-15.967304729
 20
-6.5393668083
 30
0.0
 11
-14.6256430311
 21
-9.2718186898
 31
0.0
  0
LINE
  5
873
330
783
100
AcDbEntity
  8
0
  6
Continuous
 62
     7
370
    25
100
AcDbLine
 10
-15.967304729
 20
-6.5393668083
 30
0.0
 11
-17.1131778791
 21
-0.9336382884
 31
0.0
  0
LINE
  5
874
330
783
100
AcDbEntity
  8
0
  6
Continuous
 62
     7
370
    25
100
AcDbLine
 10
-15.967304729
 20
7.6027688158
 30
0.0
 11
-10.4104310638
 21
13.5681085705
 31
0.0
  0
LINE
  5
875
330
783
100
AcDbEntity
  8
0
  6
Continuous
 62
     7
370
    25
100
AcDbLine
 10
15.967304729
 20
6.5393668083
 30
0.0
 11
14.6256430311
 21
9.2718186898
 31
0.0
  0
LINE
  5
876
330
783
100
AcDbEntity
  8
0
  6
Continuous
 62
     7
370
    25
100
AcDbLine
 10
10.9830843104
 20
12.8557182335
 30
0.0
 11
14.6256430311
 21
9.2718186898
 31
0.0
  0
LINE
  5
877
330
783
100
AcDbEntity
  8
0
  6
Continuous
 62
     7
370
    25
100
AcDbLine
 10
17.1131778791
 20
0.9336382884
 30
0.0
 11
15.967304729
 21
-7.6027688158
 31
0.0
  0
LINE
  5
878
330
783
100
AcDbEntity
  8
0
  6
Continuous
 62
     7
370
    25
100
AcDbLine
 10
-10.9830843104
 20
-12.8557182335
 30
0.0
 11
-8.6128289858
 21
-14.6059546139
 31
0.0
  0
LINE
  5
879
330
783
100
AcDbEntity
  8
0
  6
Continuous
 62
     7
370
    25
100
AcDbLine
 10
-14.6256430311
 20
-9.2718186898
 30
0.0
 11
-10.9830843104
 21
-12.8557182335
 31
0.0
  0
LINE
  5
87A
330
783
100
AcDbEntity
  8
0
  6
Continuous
 62
     7
370
    25
100
AcDbLine
 10
-7.0483112207
 20
15.1274605355
 30
0.0
 11
-10.4104310638
 21
13.5681085705
 31
0.0
  0
LINE
  5
87B
330
783
100
AcDbEntity
  8
0
  6
Continuous
 62
     7
370
    25
100
AcDbLine
 10
0.0
 20
15.5563491866
 30
0.0
 11
-7.0483112207
 21
15.1274605355
 31
0.0
  0
LINE
  5
87C
330
783
100
AcDbEntity
  8
0
  6
Continuous
 62
     7
370
    25
100
AcDbLine
 10
0.0
 20
15.5563491866
 30
0.0
 11
-1.797602078
 21
15.9175456435
 31
0.0
  0
LINE
  5
87D
330
783
100
AcDbEntity
  8
0
  6
Continuous
 62
     7
370
    25
100
AcDbLine
 10
3.9347730898
 20
15.726661228
 30
0.0
 11
-1.797602078
 21
15.9175456435
 31
0.0
  0
LINE
  5
87E
330
783
100
AcDbEntity
  8
0
  6
Continuous
 62
     7
370
    25
100
AcDbLine
 10
-1.797602078
 20
15.9175456435
 30
0.0
 11
-7.0483112207
 21
15.1274605355
 31
0.0
  0
ARC
  5
87F
330
783
100
AcDbEntity
  8
0
  6
Continuous
 62
     7
370
    25
100
AcDbCircle
 10
4.6916740475
 20
-7.3979903701
 30
0.0
 40
8.042273505102656
100
AcDbArc
 50
289.2571216141
 51
300.506640909
  0
ARC
  5
880
330
783
100
AcDbEntity
  8
0
  6
Continuous
 62
     7
370
    25
100
AcDbCircle
 10
0.0849986553
 20
8.5510075982
 30
0.0
 40
24.6538782689485
100
AcDbArc
 50
251.1688207153
 51
285.9128097334
  0
ARC
  5
881
330
783
100
AcDbEntity
  8
0
  6
Continuous
 62
     7
370
    25
100
AcDbCircle
 10
0.0292176102
 20
6.1817052759
 30
0.0
 40
24.35457135376428
100
AcDbArc
 50
249.5740726002
 51
289.6825679566
  0
VIEWPORT
  5
890
330
783
100
AcDbEntity
  8
0
100
AcDbViewport
 10
0.0
 20
0.0
 30
0.0
 40
205.6
 41
156.0
 68
     1
 69
     1
 12
0.0
 22
0.0
 13
0.0
 23
0.0
 14
10.0
 24
10.0
 15
10.0
 25
10.0
 16
0.0
 26
0.0
 36
1.0
 17
0.0
 27
0.0
 37
0.0
 42
50.0
 43
0.0
 44
0.0
 45
35.3753870846
 50
0.0
 51
0.0
 72
   100
 90
   557152
  1

281
     0
 71
     1
 74
     0
110
0.0
120
0.0
130
0.0
111
1.0
121
0.0
131
0.0
112
0.0
122
1.0
132
0.0
 79
     0
146
0.0
  0
ENDBLK
  5
786
330
783
100
AcDbEntity
  8
0
100
AcDbBlockEnd
  0
ENDSEC
  0
SECTION
  2
ENTITIES
  0
LINE
  5
D3
330
1F
100
AcDbEntity
  8
0
  6
Continuous
 62
     7
370
    25
100
AcDbLine
 10
5.5646094697
 20
9.6381863258
 30
0.0
 11
-5.5646094697
 21
-9.6381863258
 31
0.0
  0
LINE
  5
D4
330
1F
100
AcDbEntity
  8
0
  6
Continuous
 62
     7
370
    25
100
AcDbLine
 10
9.6381863258
 20
5.5646094697
 30
0.0
 11
5.5646094697
 21
9.6381863258
 31
0.0
  0
LINE
  5
D5
330
1F
100
AcDbEntity
  8
0
  6
Continuous
 62
     7
370
    25
100
AcDbLine
 10
9.6381863258
 20
5.5646094697
 30
0.0
 11
-9.6381863258
 21
-5.5646094697
 31
0.0
  0
LINE
  5
D6
330
1F
100
AcDbEntity
  8
0
  6
Continuous
 62
     7
370
    25
100
AcDbLine
 10
0.0
 20
11.1292189394
 30
0.0
 11
0.0
 21
-11.1292189394
 31
0.0
  0
LINE
  5
D7
330
1F
100
AcDbEntity
  8
0
  6
Continuous
 62
     7
370
    25
100
AcDbLine
 10
5.5646094697
 20
9.6381863258
 30
0.0
 11
0.0
 21
11.1292189394
 31
0.0
  0
LINE
  5
D8
330
1F
100
AcDbEntity
  8
0
  6
Continuous
 62
     7
370
    25
100
AcDbLine
 10
-11.1292189394
 20
0.0
 30
0.0
 11
11.1292189394
 21
0.0
 31
0.0
  0
LINE
  5
D9
330
1F
100
AcDbEntity
  8
0
  6
Continuous
 62
     7
370
    25
100
AcDbLine
 10
-9.6381863258
 20
5.5646094697
 30
0.0
 11
-11.1292189394
 21
0.0
 31
0.0
  0
LINE
  5
DA
330
1F
100
AcDbEntity
  8
0
  6
Continuous
 62
     7
370
    25
100
AcDbLine
 10
-9.6381863258
 20
5.5646094697
 30
0.0
 11
9.6381863258
 21
-5.5646094697
 31
0.0
  0
LINE
  5
DB
330
1F
100
AcDbEntity
  8
0
  6
Continuous
 62
     7
370
    25
100
AcDbLine
 10
-11.1292189394
 20
0.0
 30
0.0
 11
-9.6381863258
 21
-5.5646094697
 31
0.0
  0
LINE
  5
DC
330
1F
100
AcDbEntity
  8
0
  6
Continuous
 62
     7
370
    25
100
AcDbLine
 10
-9.6381863258
 20
-5.5646094697
 30
0.0
 11
-5.5646094697
 21
-9.6381863258
 31
0.0
  0
LINE
  5
DD
330
1F
100
AcDbEntity
  8
0
  6
Continuous
 62
     7
370
    25
100
AcDbLine
 10
-5.5646094697
 20
-9.6381863258
 30
0.0
 11
0.0
 21
-11.1292189394
 31
0.0
  0
LINE
  5
DE
330
1F
100
AcDbEntity
  8
0
  6
Continuous
 62
     7
370
    25
100
AcDbLine
 10
5.5646094697
 20
-9.6381863258
 30
0.0
 11
-5.5646094697
 21
9.6381863258
 31
0.0
  0
LINE
  5
DF
330
1F
100
AcDbEntity
  8
0
  6
Continuous
 62
     7
370
    25
100
AcDbLine
 10
0.0
 20
-11.1292189394
 30
0.0
 11
5.5646094697
 21
-9.6381863258
 31
0.0
  0
LINE
  5
E0
330
1F
100
AcDbEntity
  8
0
  6
Continuous
 62
     7
370
    25
100
AcDbLine
 10
5.5646094697
 20
-9.6381863258
 30
0.0
 11
9.6381863258
 21
-5.5646094697
 31
0.0
  0
LINE
  5
E1
330
1F
100
AcDbEntity
  8
0
  6
Continuous
 62
     7
370
    25
100
AcDbLine
 10
0.0
 20
11.1292189394
 30
0.0
 11
-5.5646094697
 21
9.6381863258
 31
0.0
  0
LINE
  5
E2
330
1F
100
AcDbEntity
  8
0
  6
Continuous
 62
     7
370
    25
100
AcDbLine
 10
-5.5646094697
 20
9.6381863258
 30
0.0
 11
-9.6381863258
 21
5.5646094697
 31
0.0
  0
LINE
  5
E3
330
1F
100
AcDbEntity
  8
0
  6
Continuous
 62
     7
370
    25
100
AcDbLine
 10
9.6381863258
 20
-5.5646094697
 30
0.0
 11
11.1292189394
 21
0.0
 31
0.0
  0
LINE
  5
E4
330
1F
100
AcDbEntity
  8
0
  6
Continuous
 62
     7
370
    25
100
AcDbLine
 10
11.1292189394
 20
0.0
 30
0.0
 11
9.6381863258
 21
5.5646094697
 31
0.0
  0
LINE
  5
E5
330
1F
100
AcDbEntity
  8
0
  6
Continuous
 62
     7
370
    25
100
AcDbLine
 10
-11.3467875173
 20
-11.3467875173
 30
0.0
 11
-4.1532124827
 21
-15.5
 31
0.0
  0
LINE
  5
E6
330
1F
100
AcDbEntity
  8
0
  6
Continuous
 62
     7
370
    25
100
AcDbLine
 10
-11.3467875173
 20
-11.3467875173
 30
0.0
 11
-5.5646094697
 21
-9.6381863258
 31
0.0
  0
LINE
  5
E7
330
1F
100
AcDbEntity
  8
0
  6
Continuous
 62
     7
370
    25
100
AcDbLine
 10
-4.1532124827
 20
-15.5
 30
0.0
 11
-5.5646094697
 21
-9.6381863258
 31
0.0
  0
LINE
  5
E8
330
1F
100
AcDbEntity
  8
0
  6
Continuous
 62
     7
370
    25
100
AcDbLine
 10
-4.1532124827
 20
-15.5
 30
0.0
 11
4.1532124827
 21
-15.5
 31
0.0
  0
LINE
  5
E9
330
1F
100
AcDbEntity
  8
0
  6
Continuous
 62
     7
370
    25
100
AcDbLine
 10
0.0
 20
-11.1292189394
 30
0.0
 11
-4.1532124827
 21
-15.5
 31
0.0
  0
LINE
  5
EA
330
1F
100
AcDbEntity
  8
0
  6
Continuous
 62
     7
370
    25
100
AcDbLine
 10
0.0
 20
-11.1292189394
 30
0.0
 11
4.1532124827
 21
-15.5
 31
0.0
  0
LINE
  5
EB
330
1F
100
AcDbEntity
  8
0
  6
Continuous
 62
     7
370
    25
100
AcDbLine
 10
-15.5
 20
-4.1532124827
 30
0.0
 11
-11.3467875173
 21
-11.3467875173
 31
0.0
  0
LINE
  5
EC
330
1F
100
AcDbEntity
  8
0
  6
Continuous
 62
     7
370
    25
100
AcDbLine
 10
-15.5
 20
-4.1532124827
 30
0.0
 11
-9.6381863258
 21
-5.5646094697
 31
0.0
  0
LINE
  5
ED
330
1F
100
AcDbEntity
  8
0
  6
Continuous
 62
     7
370
    25
100
AcDbLine
 10
-11.3467875173
 20
-11.3467875173
 30
0.0
 11
-9.6381863258
 21
-5.5646094697
 31
0.0
  0
LINE
  5
EE
330
1F
100
AcDbEntity
  8
0
  6
Continuous
 62
     7
370
    25
100
AcDbLine
 10
4.1532124827
 20
-15.5
 30
0.0
 11
11.3467875173
 21
-11.3467875173
 31
0.0
  0
LINE
  5
EF
330
1F
100
AcDbEntity
  8
0
  6
Continuous
 62
     7
370
    25
100
AcDbLine
 10
5.5646094697
 20
-9.6381863258
 30
0.0
 11
4.1532124827
 21
-15.5
 31
0.0
  0
LINE
  5
F0
330
1F
100
AcDbEntity
  8
0
  6
Continuous
 62
     7
370
    25
100
AcDbLine
 10
5.5646094697
 20
-9.6381863258
 30
0.0
 11
11.3467875173
 21
-11.3467875173
 31
0.0
  0
LINE
  5
F1
330
1F
100
AcDbEntity
  8
0
  6
Continuous
 62
     7
370
    25
100
AcDbLine
 10
15.5
 20
4.1532124827
 30
0.0
 11
11.3467875173
 21
11.3467875173
 31
0.0
  0
LINE
  5
F2
330
1F
100
AcDbEntity
  8
0
  6
Continuous
 62
     7
370
    25
100
AcDbLine
 10
9.6381863258
 20
5.5646094697
 30
0.0
 11
15.5
 21
4.1532124827
 31
0.0
  0
LINE
  5
F3
330
1F
100
AcDbEntity
  8
0
  6
Continuous
 62
     7
370
    25
100
AcDbLine
 10
9.6381863258
 20
5.5646094697
 30
0.0
 11
11.3467875173
 21
11.3467875173
 31
0.0
  0
LINE
  5
F4
330
1F
100
AcDbEntity
  8
0
  6
Continuous
 62
     7
370
    25
100
AcDbLine
 10
-4.1532124827
 20
15.5
 30
0.0
 11
-5.5646094697
 21
9.6381863258
 31
0.0
  0
LINE
  5
F5
330
1F
100
AcDbEntity
  8
0
  6
Continuous
 62
     7
370
    25
100
AcDbLine
 10
-4.1532124827
 20
15.5
 30
0.0
 11
0.0
 21
11.1292189394
 31
0.0
  0
LINE
  5
F6
330
1F
100
AcDbEntity
  8
0
  6
Continuous
 62
     7
370
    25
100
AcDbLine
 10
5.5646094697
 20
9.6381863258
 30
0.0
 11
11.3467875173
 21
11.3467875173
 31
0.0
  0
LINE
  5
F7
330
1F
100
AcDbEntity
  8
0
  6
Continuous
 62
     7
370
    25
100
AcDbLine
 10
4.1532124827
 20
15.5
 30
0.0
 11
-4.1532124827
 21
15.5
 31
0.0
  0
LINE
  5
F8
330
1F
100
AcDbEntity
  8
0
  6
Continuous
 62
     7
370
    25
100
AcDbLine
 10
4.1532124827
 20
15.5
 30
0.0
 11
0.0
 21
11.1292189394
 31
0.0
  0
LINE
  5
F9
330
1F
100
AcDbEntity
  8
0
  6
Continuous
 62
     7
370
    25
100
AcDbLine
 10
-11.3467875173
 20
11.3467875173
 30
0.0
 11
-15.5
 21
4.1532124827
 31
0.0
  0
LINE
  5
FA
330
1F
100
AcDbEntity
  8
0
  6
Continuous
 62
     7
370
    25
100
AcDbLine
 10
-11.3467875173
 20
11.3467875173
 30
0.0
 11
-9.6381863258
 21
5.5646094697
 31
0.0
  0
LINE
  5
FB
330
1F
100
AcDbEntity
  8
0
  6
Continuous
 62
     7
370
    25
100
AcDbLine
 10
-15.5
 20
4.1532124827
 30
0.0
 11
-9.6381863258
 21
5.5646094697
 31
0.0
  0
LINE
  5
FC
330
1F
100
AcDbEntity
  8
0
  6
Continuous
 62
     7
370
    25
100
AcDbLine
 10
5.5646094697
 20
9.6381863258
 30
0.0
 11
4.1532124827
 21
15.5
 31
0.0
  0
LINE
  5
FD
330
1F
100
AcDbEntity
  8
0
  6
Continuous
 62
     7
370
    25
100
AcDbLine
 10
-15.5
 20
-4.1532124827
 30
0.0
 11
-11.1292189394
 21
0.0
 31
0.0
  0
LINE
  5
FE
330
1F
100
AcDbEntity
  8
0
  6
Continuous
 62
     7
370
    25
100
AcDbLine
 10
9.6381863258
 20
-5.5646094697
 30
0.0
 11
11.3467875173
 21
-11.3467875173
 31
0.0
  0
LINE
  5
FF
330
1F
100
AcDbEntity
  8
0
  6
Continuous
 62
     7
370
    25
100
AcDbLine
 10
-15.5
 20
4.1532124827
 30
0.0
 11
-15.5
 21
-4.1532124827
 31
0.0
  0
LINE
  5
100
330
1F
100
AcDbEntity
  8
0
  6
Continuous
 62
     7
370
    25
100
AcDbLine
 10
-15.5
 20
4.1532124827
 30
0.0
 11
-11.1292189394
 21
0.0
 31
0.0
  0
LINE
  5
101
330
1F
100
AcDbEntity
  8
0
  6
Continuous
 62
     7
370
    25
100
AcDbLine
 10
11.3467875173
 20
-11.3467875173
 30
0.0
 11
15.5
 21
-4.1532124827
 31
0.0
  0
LINE
  5
102
330
1F
100
AcDbEntity
  8
0
  6
Continuous
 62
     7
370
    25
100
AcDbLine
 10
9.6381863258
 20
-5.5646094697
 30
0.0
 11
15.5
 21
-4.1532124827
 31
0.0
  0
LINE
  5
103
330
1F
100
AcDbEntity
  8
0
  6
Continuous
 62
     7
370
    25
100
AcDbLine
 10
11.1292189394
 20
0.0
 30
0.0
 11
15.5
 21
-4.1532124827
 31
0.0
  0
LINE
  5
104
330
1F
100
AcDbEntity
  8
0
  6
Continuous
 62
     7
370
    25
100
AcDbLine
 10
-4.1532124827
 20
15.5
 30
0.0
 11
-11.3467875173
 21
11.3467875173
 31
0.0
  0
LINE
  5
105
330
1F
100
AcDbEntity
  8
0
  6
Continuous
 62
     7
370
    25
100
AcDbLine
 10
-11.3467875173
 20
11.3467875173
 30
0.0
 11
-5.5646094697
 21
9.6381863258
 31
0.0
  0
LINE
  5
106
330
1F
100
AcDbEntity
  8
0
  6
Continuous
 62
     7
370
    25
100
AcDbLine
 10
15.5
 20
-4.1532124827
 30
0.0
 11
15.5
 21
4.1532124827
 31
0.0
  0
LINE
  5
107
330
1F
100
AcDbEntity
  8
0
  6
Continuous
 62
     7
370
    25
100
AcDbLine
 10
11.1292189394
 20
0.0
 30
0.0
 11
15.5
 21
4.1532124827
 31
0.0
  0
LINE
  5
108
330
1F
100
AcDbEntity
  8
0
  6
Continuous
 62
     7
370
    25
100
AcDbLine
 10
11.3467875173
 20
11.3467875173
 30
0.0
 11
4.1532124827
 21
15.5
 31
0.0
  0
LINE
  5
109
330
1F
100
AcDbEntity
  8
0
  6
Continuous
 62
     7
370
    25
100
AcDbLine
 10
8.6704380109
 20
-15.0176391588
 30
0.0
 11
4.1532124827
 21
-15.5
 31
0.0
  0
LINE
  5
10A
330
1F
100
AcDbEntity
  8
0
  6
Continuous
 62
     7
370
    25
100
AcDbLine
 10
8.6704380109
 20
-15.0176391588
 30
0.0
 11
11.3467875173
 21
-11.3467875173
 31
0.0
  0
LINE
  5
10B
330
1F
100
AcDbEntity
  8
0
  6
Continuous
 62
     7
370
    25
100
AcDbLine
 10
-15.5
 20
-4.1532124827
 30
0.0
 11
-15.0176391588
 21
-8.6704380109
 31
0.0
  0
LINE
  5
10C
330
1F
100
AcDbEntity
  8
0
  6
Continuous
 62
     7
370
    25
100
AcDbLine
 10
-15.0176391588
 20
-8.6704380109
 30
0.0
 11
-17.3408760219
 21
0.0
 31
0.0
  0
LINE
  5
10D
330
1F
100
AcDbEntity
  8
0
  6
Continuous
 62
     7
370
    25
100
AcDbLine
 10
-15.5
 20
-4.1532124827
 30
0.0
 11
-17.3408760219
 21
0.0
 31
0.0
  0
LINE
  5
10E
330
1F
100
AcDbEntity
  8
0
  6
Continuous
 62
     7
370
    25
100
AcDbLine
 10
15.0176391588
 20
-8.6704380109
 30
0.0
 11
11.3467875173
 21
-11.3467875173
 31
0.0
  0
LINE
  5
10F
330
1F
100
AcDbEntity
  8
0
  6
Continuous
 62
     7
370
    25
100
AcDbLine
 10
15.0176391588
 20
-8.6704380109
 30
0.0
 11
8.6704380109
 21
-15.0176391588
 31
0.0
  0
LINE
  5
110
330
1F
100
AcDbEntity
  8
0
  6
Continuous
 62
     7
370
    25
100
AcDbLine
 10
-15.5
 20
4.1532124827
 30
0.0
 11
-17.3408760219
 21
0.0
 31
0.0
  0
LINE
  5
111
330
1F
100
AcDbEntity
  8
0
  6
Continuous
 62
     7
370
    25
100
AcDbLine
 10
15.0176391588
 20
-8.6704380109
 30
0.0
 11
15.5
 21
-4.1532124827
 31
0.0
  0
LINE
  5
112
330
1F
100
AcDbEntity
  8
0
  6
Continuous
 62
     7
370
    25
100
AcDbLine
 10
-17.3408760219
 20
0.0
 30
0.0
 11
-15.0176391588
 21
8.6704380109
 31
0.0
  0
LINE
  5
113
330
1F
100
AcDbEntity
  8
0
  6
Continuous
 62
     7
370
    25
100
AcDbLine
 10
-15.5
 20
4.1532124827
 30
0.0
 11
-15.0176391588
 21
8.6704380109
 31
0.0
  0
LINE
  5
114
330
1F
100
AcDbEntity
  8
0
  6
Continuous
 62
     7
370
    25
100
AcDbLine
 10
17.3408760219
 20
0.0
 30
0.0
 11
15.5
 21
-4.1532124827
 31
0.0
  0
LINE
  5
115
330
1F
100
AcDbEntity
  8
0
  6
Continuous
 62
     7
370
    25
100
AcDbLine
 10
17.3408760219
 20
0.0
 30
0.0
 11
15.0176391588
 21
-8.6704380109
 31
0.0
  0
LINE
  5
116
330
1F
100
AcDbEntity
  8
0
  6
Continuous
 62
     7
370
    25
100
AcDbLine
 10
-11.3467875173
 20
11.3467875173
 30
0.0
 11
-15.0176391588
 21
8.6704380109
 31
0.0
  0
LINE
  5
117
330
1F
100
AcDbEntity
  8
0
  6
Continuous
 62
     7
370
    25
100
AcDbLine
 10
17.3408760219
 20
0.0
 30
0.0
 11
15.5
 21
4.1532124827
 31
0.0
  0
LINE
  5
118
330
1F
100
AcDbEntity
  8
0
  6
Continuous
 62
     7
370
    25
100
AcDbLine
 10
-15.0176391588
 20
8.6704380109
 30
0.0
 11
-8.6704380109
 21
15.0176391588
 31
0.0
  0
LINE
  5
119
330
1F
100
AcDbEntity
  8
0
  6
Continuous
 62
     7
370
    25
100
AcDbLine
 10
-11.3467875173
 20
11.3467875173
 30
0.0
 11
-8.6704380109
 21
15.0176391588
 31
0.0
  0
LINE
  5
11A
330
1F
100
AcDbEntity
  8
0
  6
Continuous
 62
     7
370
    25
100
AcDbLine
 10
15.0176391588
 20
8.6704380109
 30
0.0
 11
15.5
 21
4.1532124827
 31
0.0
  0
LINE
  5
11B
330
1F
100
AcDbEntity
  8
0
  6
Continuous
 62
     7
370
    25
100
AcDbLine
 10
15.0176391588
 20
8.6704380109
 30
0.0
 11
17.3408760219
 21
0.0
 31
0.0
  0
LINE
  5
11C
330
1F
100
AcDbEntity
  8
0
  6
Continuous
 62
     7
370
    25
100
AcDbLine
 10
0.0
 20
-17.3408760219
 30
0.0
 11
-4.1532124827
 21
-15.5
 31
0.0
  0
LINE
  5
11D
330
1F
100
AcDbEntity
  8
0
  6
Continuous
 62
     7
370
    25
100
AcDbLine
 10
0.0
 20
-17.3408760219
 30
0.0
 11
-8.6704380109
 21
-15.0176391588
 31
0.0
  0
LINE
  5
11E
330
1F
100
AcDbEntity
  8
0
  6
Continuous
 62
     7
370
    25
100
AcDbLine
 10
-4.1532124827
 20
-15.5
 30
0.0
 11
-8.6704380109
 21
-15.0176391588
 31
0.0
  0
LINE
  5
11F
330
1F
100
AcDbEntity
  8
0
  6
Continuous
 62
     7
370
    25
100
AcDbLine
 10
-11.3467875173
 20
-11.3467875173
 30
0.0
 11
-8.6704380109
 21
-15.0176391588
 31
0.0
  0
LINE
  5
120
330
1F
100
AcDbEntity
  8
0
  6
Continuous
 62
     7
370
    25
100
AcDbLine
 10
0.0
 20
-17.3408760219
 30
0.0
 11
4.1532124827
 21
-15.5
 31
0.0
  0
LINE
  5
121
330
1F
100
AcDbEntity
  8
0
  6
Continuous
 62
     7
370
    25
100
AcDbLine
 10
-8.6704380109
 20
-15.0176391588
 30
0.0
 11
-15.0176391588
 21
-8.6704380109
 31
0.0
  0
LINE
  5
122
330
1F
100
AcDbEntity
  8
0
  6
Continuous
 62
     7
370
    25
100
AcDbLine
 10
-11.3467875173
 20
-11.3467875173
 30
0.0
 11
-15.0176391588
 21
-8.6704380109
 31
0.0
  0
LINE
  5
123
330
1F
100
AcDbEntity
  8
0
  6
Continuous
 62
     7
370
    25
100
AcDbLine
 10
8.6704380109
 20
-15.0176391588
 30
0.0
 11
0.0
 21
-17.3408760219
 31
0.0
  0
LINE
  5
124
330
1F
100
AcDbEntity
  8
0
  6
Continuous
 62
     7
370
    25
100
AcDbLine
 10
4.1532124827
 20
15.5
 30
0.0
 11
0.0
 21
17.3408760219
 31
0.0
  0
LINE
  5
125
330
1F
100
AcDbEntity
  8
0
  6
Continuous
 62
     7
370
    25
100
AcDbLine
 10
0.0
 20
17.3408760219
 30
0.0
 11
8.6704380109
 21
15.0176391588
 31
0.0
  0
LINE
  5
126
330
1F
100
AcDbEntity
  8
0
  6
Continuous
 62
     7
370
    25
100
AcDbLine
 10
8.6704380109
 20
15.0176391588
 30
0.0
 11
4.1532124827
 21
15.5
 31
0.0
  0
LINE
  5
127
330
1F
100
AcDbEntity
  8
0
  6
Continuous
 62
     7
370
    25
100
AcDbLine
 10
-4.1532124827
 20
15.5
 30
0.0
 11
-8.6704380109
 21
15.0176391588
 31
0.0
  0
LINE
  5
128
330
1F
100
AcDbEntity
  8
0
  6
Continuous
 62
     7
370
    25
100
AcDbLine
 10
-8.6704380109
 20
15.0176391588
 30
0.0
 11
0.0
 21
17.3408760219
 31
0.0
  0
LINE
  5
129
330
1F
100
AcDbEntity
  8
0
  6
Continuous
 62
     7
370
    25
100
AcDbLine
 10
-4.1532124827
 20
15.5
 30
0.0
 11
0.0
 21
17.3408760219
 31
0.0
  0
LINE
  5
12A
330
1F
100
AcDbEntity
  8
0
  6
Continuous
 62
     7
370
    25
100
AcDbLine
 10
8.6704380109
 20
15.0176391588
 30
0.0
 11
11.3467875173
 21
11.3467875173
 31
0.0
  0
LINE
  5
12B
330
1F
100
AcDbEntity
  8
0
  6
Continuous
 62
     7
370
    25
100
AcDbLine
 10
8.6704380109
 20
15.0176391588
 30
0.0
 11
15.0176391588
 21
8.6704380109
 31
0.0
  0
LINE
  5
12C
330
1F
100
AcDbEntity
  8
0
  6
Continuous
 62
     7
370
    25
100
AcDbLine
 10
15.0176391588
 20
8.6704380109
 30
0.0
 11
11.3467875173
 21
11.3467875173
 31
0.0
  0
LINE
  5
1AE
330
1B
100
AcDbEntity
 67
     1
  8
0
  6
Continuous
 62
     7
370
    25
100
AcDbLine
 10
10.5
 20
-30.0
 30
0.0
 11
10.5
 21
-27.86037961
 31
0.0
  0
LINE
  5
1AF
330
1B
100
AcDbEntity
 67
     1
  8
0
  6
Continuous
 62
     7
370
    25
100
AcDbLine
 10
-10.5
 20
-27.86037961
 30
0.0
 11
-10.5
 21
-30.0
 31
0.0
  0
LINE
  5
1B0
330
1B
100
AcDbEntity
 67
     1
  8
0
  6
Continuous
 62
     7
370
    25
100
AcDbLine
 10
10.5
 20
-15.3518268283
 30
0.0
 11
10.5
 21
-13.5
 31
0.0
  0
LINE
  5
1B1
330
1B
100
AcDbEntity
 67
     1
  8
0
  6
Continuous
 62
     7
370
    25
100
AcDbLine
 10
-10.5
 20
-13.5
 30
0.0
 11
-10.5
 21
-15.3518268283
 31
0.0
  0
LINE
  5
1B2
330
1B
100
AcDbEntity
 67
     1
  8
0
  6
Continuous
 62
     7
370
    25
100
AcDbLine
 10
-10.3582507531
 20
-15.5431559942
 30
0.0
 11
-7.2154215926
 21
-16.5
 31
0.0
  0
LINE
  5
1B3
330
1B
100
AcDbEntity
 67
     1
  8
0
  6
Continuous
 62
     7
370
    25
100
AcDbLine
 10
7.2154215926
 20
-16.5
 30
0.0
 11
10.3582507531
 21
-15.5431559942
 31
0.0
  0
LINE
  5
1B4
330
1B
100
AcDbEntity
 67
     1
  8
0
  6
Continuous
 62
     7
370
    25
100
AcDbLine
 10
10.158113883
 20
-27.386037961
 30
0.0
 11
9.1367544468
 21
-27.0455848156
 31
0.0
  0
LINE
  5
1B5
330
1B
100
AcDbEntity
 67
     1
  8
0
  6
Continuous
 62
     7
370
    25
100
AcDbLine
 10
-9.1367544468
 20
-27.0455848156
 30
0.0
 11
-10.158113883
 21
-27.386037961
 31
0.0
  0
LINE
  5
1B6
330
1B
100
AcDbEntity
 67
     1
  8
0
  6
Continuous
 62
     7
370
    25
100
AcDbLine
 10
9.0
 20
-26.855848156
 30
0.0
 11
9.0
 21
-25.6865030172
 31
0.0
  0
LINE
  5
1B7
330
1B
100
AcDbEntity
 67
     1
  8
0
  6
Continuous
 62
     7
370
    25
100
AcDbLine
 10
-9.0
 20
-25.6865030172
 30
0.0
 11
-9.0
 21
-26.855848156
 31
0.0
  0
LINE
  5
1B8
330
1B
100
AcDbEntity
 67
     1
  8
0
  6
Continuous
 62
     7
370
    25
100
AcDbLine
 10
8.8139512947
 20
-25.4869902072
 30
0.0
 11
8.2294069587
 21
-25.4461148853
 31
0.0
  0
LINE
  5
1B9
330
1B
100
AcDbEntity
 67
     1
  8
0
  6
Continuous
 62
     7
370
    25
100
AcDbLine
 10
-8.2294069587
 20
-25.4461148853
 30
0.0
 11
-8.8139512947
 21
-25.4869902072
 31
0.0
  0
LINE
  5
1BA
330
1B
100
AcDbEntity
 67
     1
  8
0
  6
Continuous
 62
     7
370
    25
100
AcDbLine
 10
10.5
 20
-30.0
 30
0.0
 11
-10.5
 21
-30.0
 31
0.0
  0
LINE
  5
1BB
330
1B
100
AcDbEntity
 67
     1
  8
0
  6
Continuous
 62
     7
370
    25
100
AcDbLine
 10
10.5
 20
-13.5
 30
0.0
 11
-10.5
 21
-13.5
 31
0.0
  0
LINE
  5
1BC
330
1B
100
AcDbEntity
 67
     1
  8
0
  6
Continuous
 62
     7
370
    25
100
AcDbLine
 10
-15.5
 20
-7.5
 30
0.0
 11
15.5
 21
-7.5
 31
0.0
  0
LINE
  5
1BD
330
1B
100
AcDbEntity
 67
     1
  8
0
  6
Continuous
 62
     7
370
    25
100
AcDbLine
 10
-4.1532124827
 20
-7.5
 30
0.0
 11
4.1532124827
 21
7.5
 31
0.0
  0
LINE
  5
1BE
330
1B
100
AcDbEntity
 67
     1
  8
0
  6
Continuous
 62
     7
370
    25
100
AcDbLine
 10
-4.1532124827
 20
7.5
 30
0.0
 11
4.1532124827
 21
-7.5
 31
0.0
  0
LINE
  5
1BF
330
1B
100
AcDbEntity
 67
     1
  8
0
  6
Continuous
 62
     7
370
    25
100
AcDbLine
 10
17.3408760219
 20
0.0
 30
0.0
 11
-17.3408760219
 21
0.0
 31
0.0
  0
LINE
  5
1C0
330
1B
100
AcDbEntity
 67
     1
  8
0
  6
Continuous
 62
     7
370
    25
100
AcDbLine
 10
8.6704380109
 20
0.0
 30
0.0
 11
4.1532124827
 21
-7.5
 31
0.0
  0
LINE
  5
1C1
330
1B
100
AcDbEntity
 67
     1
  8
0
  6
Continuous
 62
     7
370
    25
100
AcDbLine
 10
-4.1532124827
 20
7.5
 30
0.0
 11
-8.6704380109
 21
0.0
 31
0.0
  0
LINE
  5
1C2
330
1B
100
AcDbEntity
 67
     1
  8
0
  6
Continuous
 62
     7
370
    25
100
AcDbLine
 10
-4.1532124827
 20
-7.5
 30
0.0
 11
-8.6704380109
 21
0.0
 31
0.0
  0
LINE
  5
1C3
330
1B
100
AcDbEntity
 67
     1
  8
0
  6
Continuous
 62
     7
370
    25
100
AcDbLine
 10
8.6704380109
 20
0.0
 30
0.0
 11
4.1532124827
 21
7.5
 31
0.0
  0
LINE
  5
1C4
330
1B
100
AcDbEntity
 67
     1
  8
0
  6
Continuous
 62
     7
370
    25
100
AcDbLine
 10
-15.5
 20
7.5
 30
0.0
 11
15.5
 21
7.5
 31
0.0
  0
LINE
  5
1C5
330
1B
100
AcDbEntity
 67
     1
  8
0
  6
Continuous
 62
     7
370
    25
100
AcDbLine
 10
-11.1292189394
 20
13.0
 30
0.0
 11
11.1292189394
 21
13.0
 31
0.0
  0
LINE
  5
1C6
330
1B
100
AcDbEntity
 67
     1
  8
0
  6
Continuous
 62
     7
370
    25
100
AcDbLine
 10
0.0
 20
13.0
 30
0.0
 11
-4.1532124827
 21
7.5
 31
0.0
  0
LINE
  5
1C7
330
1B
100
AcDbEntity
 67
     1
  8
0
  6
Continuous
 62
     7
370
    25
100
AcDbLine
 10
-4.1532124827
 20
7.5
 30
0.0
 11
-5.5646094697
 21
13.0
 31
0.0
  0
LINE
  5
1C8
330
1B
100
AcDbEntity
 67
     1
  8
0
  6
Continuous
 62
     7
370
    25
100
AcDbLine
 10
0.0
 20
13.0
 30
0.0
 11
4.1532124827
 21
7.5
 31
0.0
  0
LINE
  5
1C9
330
1B
100
AcDbEntity
 67
     1
  8
0
  6
Continuous
 62
     7
370
    25
100
AcDbLine
 10
-11.3467875173
 20
7.5
 30
0.0
 11
-8.6704380109
 21
0.0
 31
0.0
  0
LINE
  5
1CA
330
1B
100
AcDbEntity
 67
     1
  8
0
  6
Continuous
 62
     7
370
    25
100
AcDbLine
 10
-11.3467875173
 20
-7.5
 30
0.0
 11
-8.6704380109
 21
0.0
 31
0.0
  0
LINE
  5
1CB
330
1B
100
AcDbEntity
 67
     1
  8
0
  6
Continuous
 62
     7
370
    25
100
AcDbLine
 10
0.0
 20
-13.0
 30
0.0
 11
-4.1532124827
 21
-7.5
 31
0.0
  0
LINE
  5
1CC
330
1B
100
AcDbEntity
 67
     1
  8
0
  6
Continuous
 62
     7
370
    25
100
AcDbLine
 10
0.0
 20
-13.0
 30
0.0
 11
4.1532124827
 21
-7.5
 31
0.0
  0
LINE
  5
1CD
330
1B
100
AcDbEntity
 67
     1
  8
0
  6
Continuous
 62
     7
370
    25
100
AcDbLine
 10
-11.3467875173
 20
-7.5
 30
0.0
 11
-5.5646094697
 21
-13.0
 31
0.0
  0
LINE
  5
1CE
330
1B
100
AcDbEntity
 67
     1
  8
0
  6
Continuous
 62
     7
370
    25
100
AcDbLine
 10
-4.1532124827
 20
-7.5
 30
0.0
 11
-5.5646094697
 21
-13.0
 31
0.0
  0
LINE
  5
1CF
330
1B
100
AcDbEntity
 67
     1
  8
0
  6
Continuous
 62
     7
370
    25
100
AcDbLine
 10
-11.3467875173
 20
7.5
 30
0.0
 11
-5.5646094697
 21
13.0
 31
0.0
  0
LINE
  5
1D0
330
1B
100
AcDbEntity
 67
     1
  8
0
  6
Continuous
 62
     7
370
    25
100
AcDbLine
 10
-11.1292189394
 20
-13.0
 30
0.0
 11
11.1292189394
 21
-13.0
 31
0.0
  0
LINE
  5
1D1
330
1B
100
AcDbEntity
 67
     1
  8
0
  6
Continuous
 62
     7
370
    25
100
AcDbLine
 10
5.5646094697
 20
13.0
 30
0.0
 11
4.1532124827
 21
7.5
 31
0.0
  0
LINE
  5
1D2
330
1B
100
AcDbEntity
 67
     1
  8
0
  6
Continuous
 62
     7
370
    25
100
AcDbLine
 10
8.6704380109
 20
0.0
 30
0.0
 11
11.3467875173
 21
-7.5
 31
0.0
  0
LINE
  5
1D3
330
1B
100
AcDbEntity
 67
     1
  8
0
  6
Continuous
 62
     7
370
    25
100
AcDbLine
 10
5.5646094697
 20
-13.0
 30
0.0
 11
4.1532124827
 21
-7.5
 31
0.0
  0
LINE
  5
1D4
330
1B
100
AcDbEntity
 67
     1
  8
0
  6
Continuous
 62
     7
370
    25
100
AcDbLine
 10
5.5646094697
 20
-13.0
 30
0.0
 11
11.3467875173
 21
-7.5
 31
0.0
  0
LINE
  5
1D5
330
1B
100
AcDbEntity
 67
     1
  8
0
  6
Continuous
 62
     7
370
    25
100
AcDbLine
 10
5.5646094697
 20
13.0
 30
0.0
 11
11.3467875173
 21
7.5
 31
0.0
  0
LINE
  5
1D6
330
1B
100
AcDbEntity
 67
     1
  8
0
  6
Continuous
 62
     7
370
    25
100
AcDbLine
 10
8.6704380109
 20
0.0
 30
0.0
 11
11.3467875173
 21
7.5
 31
0.0
  0
LINE
  5
1D7
330
1B
100
AcDbEntity
 67
     1
  8
0
  6
Continuous
 62
     7
370
    25
100
AcDbLine
 10
-11.3467875173
 20
-7.5
 30
0.0
 11
-15.0176391588
 21
0.0
 31
0.0
  0
LINE
  5
1D8
330
1B
100
AcDbEntity
 67
     1
  8
0
  6
Continuous
 62
     7
370
    25
100
AcDbLine
 10
-11.3467875173
 20
7.5
 30
0.0
 11
-15.0176391588
 21
0.0
 31
0.0
  0
LINE
  5
1D9
330
1B
100
AcDbEntity
 67
     1
  8
0
  6
Continuous
 62
     7
370
    25
100
AcDbLine
 10
15.0176391588
 20
0.0
 30
0.0
 11
11.3467875173
 21
7.5
 31
0.0
  0
LINE
  5
1DA
330
1B
100
AcDbEntity
 67
     1
  8
0
  6
Continuous
 62
     7
370
    25
100
AcDbLine
 10
15.0176391588
 20
0.0
 30
0.0
 11
11.3467875173
 21
-7.5
 31
0.0
  0
LINE
  5
1DB
330
1B
100
AcDbEntity
 67
     1
  8
0
  6
Continuous
 62
     7
370
    25
100
AcDbLine
 10
-15.5
 20
7.5
 30
0.0
 11
-15.0176391588
 21
0.0
 31
0.0
  0
LINE
  5
1DC
330
1B
100
AcDbEntity
 67
     1
  8
0
  6
Continuous
 62
     7
370
    25
100
AcDbLine
 10
-15.5
 20
-7.5
 30
0.0
 11
-15.0176391588
 21
0.0
 31
0.0
  0
LINE
  5
1DD
330
1B
100
AcDbEntity
 67
     1
  8
0
  6
Continuous
 62
     7
370
    25
100
AcDbLine
 10
-11.3467875173
 20
-7.5
 30
0.0
 11
-9.6381863258
 21
-13.0
 31
0.0
  0
LINE
  5
1DE
330
1B
100
AcDbEntity
 67
     1
  8
0
  6
Continuous
 62
     7
370
    25
100
AcDbLine
 10
-15.5
 20
-7.5
 30
0.0
 11
-9.6381863258
 21
-13.0
 31
0.0
  0
LINE
  5
1DF
330
1B
100
AcDbEntity
 67
     1
  8
0
  6
Continuous
 62
     7
370
    25
100
AcDbLine
 10
-11.3467875173
 20
7.5
 30
0.0
 11
-9.6381863258
 21
13.0
 31
0.0
  0
LINE
  5
1E0
330
1B
100
AcDbEntity
 67
     1
  8
0
  6
Continuous
 62
     7
370
    25
100
AcDbLine
 10
-15.5
 20
7.5
 30
0.0
 11
-9.6381863258
 21
13.0
 31
0.0
  0
LINE
  5
1E1
330
1B
100
AcDbEntity
 67
     1
  8
0
  6
Continuous
 62
     7
370
    25
100
AcDbLine
 10
9.6381863258
 20
13.0
 30
0.0
 11
11.3467875173
 21
7.5
 31
0.0
  0
LINE
  5
1E2
330
1B
100
AcDbEntity
 67
     1
  8
0
  6
Continuous
 62
     7
370
    25
100
AcDbLine
 10
9.6381863258
 20
-13.0
 30
0.0
 11
11.3467875173
 21
-7.5
 31
0.0
  0
LINE
  5
1E3
330
1B
100
AcDbEntity
 67
     1
  8
0
  6
Continuous
 62
     7
370
    25
100
AcDbLine
 10
15.0176391588
 20
0.0
 30
0.0
 11
15.5
 21
7.5
 31
0.0
  0
LINE
  5
1E4
330
1B
100
AcDbEntity
 67
     1
  8
0
  6
Continuous
 62
     7
370
    25
100
AcDbLine
 10
15.0176391588
 20
0.0
 30
0.0
 11
15.5
 21
-7.5
 31
0.0
  0
LINE
  5
1E5
330
1B
100
AcDbEntity
 67
     1
  8
0
  6
Continuous
 62
     7
370
    25
100
AcDbLine
 10
9.6381863258
 20
13.0
 30
0.0
 11
15.5
 21
7.5
 31
0.0
  0
LINE
  5
1E6
330
1B
100
AcDbEntity
 67
     1
  8
0
  6
Continuous
 62
     7
370
    25
100
AcDbLine
 10
9.6381863258
 20
-13.0
 30
0.0
 11
15.5
 21
-7.5
 31
0.0
  0
LINE
  5
1E7
330
1B
100
AcDbEntity
 67
     1
  8
0
  6
Continuous
 62
     7
370
    25
100
AcDbLine
 10
4.7696652597
 20
-13.5
 30
0.0
 11
5.5646094697
 21
-13.0
 31
0.0
  0
LINE
  5
1E8
330
1B
100
AcDbEntity
 67
     1
  8
0
  6
Continuous
 62
     7
370
    25
100
AcDbLine
 10
0.0
 20
-13.5
 30
0.0
 11
0.0
 21
-13.0
 31
0.0
  0
LINE
  5
1E9
330
1B
100
AcDbEntity
 67
     1
  8
0
  6
Continuous
 62
     7
370
    25
100
AcDbLine
 10
0.0
 20
16.5
 30
0.0
 11
0.0
 21
13.0
 31
0.0
  0
LINE
  5
1EA
330
1B
100
AcDbEntity
 67
     1
  8
0
  6
Continuous
 62
     7
370
    25
100
AcDbLine
 10
0.0
 20
16.5
 30
0.0
 11
-5.5646094697
 21
13.0
 31
0.0
  0
LINE
  5
1EB
330
1B
100
AcDbEntity
 67
     1
  8
0
  6
Continuous
 62
     7
370
    25
100
AcDbLine
 10
0.0
 20
16.5
 30
0.0
 11
5.5646094697
 21
13.0
 31
0.0
  0
LINE
  5
1EC
330
1B
100
AcDbEntity
 67
     1
  8
0
  6
Continuous
 62
     7
370
    25
100
AcDbLine
 10
-4.7696652597
 20
-13.5
 30
0.0
 11
-5.5646094697
 21
-13.0
 31
0.0
  0
LINE
  5
1ED
330
1B
100
AcDbEntity
 67
     1
  8
0
  6
Continuous
 62
     7
370
    25
100
AcDbLine
 10
0.0
 20
16.5
 30
0.0
 11
-9.6381863258
 21
13.0
 31
0.0
  0
LINE
  5
1EE
330
1B
100
AcDbEntity
 67
     1
  8
0
  6
Continuous
 62
     7
370
    25
100
AcDbLine
 10
-8.261302565
 20
-13.5
 30
0.0
 11
-9.6381863258
 21
-13.0
 31
0.0
  0
LINE
  5
1EF
330
1B
100
AcDbEntity
 67
     1
  8
0
  6
Continuous
 62
     7
370
    25
100
AcDbLine
 10
8.261302565
 20
-13.5
 30
0.0
 11
9.6381863258
 21
-13.0
 31
0.0
  0
LINE
  5
1F0
330
1B
100
AcDbEntity
 67
     1
  8
0
  6
Continuous
 62
     7
370
    25
100
AcDbLine
 10
0.0
 20
16.5
 30
0.0
 11
9.6381863258
 21
13.0
 31
0.0
  0
LINE
  5
1F1
330
1B
100
AcDbEntity
 67
     1
  8
0
  6
Continuous
 62
     7
370
    25
100
AcDbLine
 10
-15.5
 20
7.5
 30
0.0
 11
-17.3408760219
 21
0.0
 31
0.0
  0
LINE
  5
1F2
330
1B
100
AcDbEntity
 67
     1
  8
0
  6
Continuous
 62
     7
370
    25
100
AcDbLine
 10
-15.5
 20
-7.5
 30
0.0
 11
-17.3408760219
 21
0.0
 31
0.0
  0
LINE
  5
1F3
330
1B
100
AcDbEntity
 67
     1
  8
0
  6
Continuous
 62
     7
370
    25
100
AcDbLine
 10
17.3408760219
 20
0.0
 30
0.0
 11
15.5
 21
7.5
 31
0.0
  0
LINE
  5
1F4
330
1B
100
AcDbEntity
 67
     1
  8
0
  6
Continuous
 62
     7
370
    25
100
AcDbLine
 10
17.3408760219
 20
0.0
 30
0.0
 11
15.5
 21
-7.5
 31
0.0
  0
LINE
  5
1F5
330
1B
100
AcDbEntity
 67
     1
  8
0
  6
Continuous
 62
     7
370
    25
100
AcDbLine
 10
-15.5
 20
-7.5
 30
0.0
 11
-11.1292189394
 21
-13.0
 31
0.0
  0
LINE
  5
1F6
330
1B
100
AcDbEntity
 67
     1
  8
0
  6
Continuous
 62
     7
370
    25
100
AcDbLine
 10
-9.5393305195
 20
-13.5
 30
0.0
 11
-11.1292189394
 21
-13.0
 31
0.0
  0
LINE
  5
1F7
330
1B
100
AcDbEntity
 67
     1
  8
0
  6
Continuous
 62
     7
370
    25
100
AcDbLine
 10
-15.5
 20
7.5
 30
0.0
 11
-11.1292189394
 21
13.0
 31
0.0
  0
LINE
  5
1F8
330
1B
100
AcDbEntity
 67
     1
  8
0
  6
Continuous
 62
     7
370
    25
100
AcDbLine
 10
0.0
 20
16.5
 30
0.0
 11
-11.1292189394
 21
13.0
 31
0.0
  0
LINE
  5
1F9
330
1B
100
AcDbEntity
 67
     1
  8
0
  6
Continuous
 62
     7
370
    25
100
AcDbLine
 10
0.0
 20
16.5
 30
0.0
 11
11.1292189394
 21
13.0
 31
0.0
  0
LINE
  5
1FA
330
1B
100
AcDbEntity
 67
     1
  8
0
  6
Continuous
 62
     7
370
    25
100
AcDbLine
 10
11.1292189394
 20
-13.0
 30
0.0
 11
15.5
 21
-7.5
 31
0.0
  0
LINE
  5
1FB
330
1B
100
AcDbEntity
 67
     1
  8
0
  6
Continuous
 62
     7
370
    25
100
AcDbLine
 10
9.5393305195
 20
-13.5
 30
0.0
 11
11.1292189394
 21
-13.0
 31
0.0
  0
LINE
  5
1FC
330
1B
100
AcDbEntity
 67
     1
  8
0
  6
Continuous
 62
     7
370
    25
100
AcDbLine
 10
11.1292189394
 20
13.0
 30
0.0
 11
15.5
 21
7.5
 31
0.0
  0
LINE
  5
1FD
330
1B
100
AcDbEntity
 67
     1
  8
0
  6
Continuous
 62
     8
370
    25
100
AcDbLine
 10
10.5
 20
-27.86037961
 30
0.0
 11
-10.5
 21
-27.86037961
 31
0.0
  0
LINE
  5
1FE
330
1B
100
AcDbEntity
 67
     1
  8
0
  6
Continuous
 62
     8
370
    25
100
AcDbLine
 10
-10.5
 20
-15.3518268283
 30
0.0
 11
10.5
 21
-15.3518268283
 31
0.0
  0
LINE
  5
1FF
330
1B
100
AcDbEntity
 67
     1
  8
0
  6
Continuous
 62
     8
370
    25
100
AcDbLine
 10
10.3582507531
 20
-15.5431559942
 30
0.0
 11
-10.3582507531
 21
-15.5431559942
 31
0.0
  0
LINE
  5
200
330
1B
100
AcDbEntity
 67
     1
  8
0
  6
Continuous
 62
     8
370
    25
100
AcDbLine
 10
-10.158113883
 20
-27.386037961
 30
0.0
 11
10.158113883
 21
-27.386037961
 31
0.0
  0
LINE
  5
201
330
1B
100
AcDbEntity
 67
     1
  8
0
  6
Continuous
 62
     8
370
    25
100
AcDbLine
 10
7.2154215926
 20
-16.5
 30
0.0
 11
-7.2154215926
 21
-16.5
 31
0.0
  0
LINE
  5
202
330
1B
100
AcDbEntity
 67
     1
  8
0
  6
Continuous
 62
     8
370
    25
100
AcDbLine
 10
9.1367544468
 20
-27.0455848156
 30
0.0
 11
-9.1367544468
 21
-27.0455848156
 31
0.0
  0
LINE
  5
203
330
1B
100
AcDbEntity
 67
     1
  8
0
  6
Continuous
 62
     8
370
    25
100
AcDbLine
 10
-9.0
 20
-26.855848156
 30
0.0
 11
9.0
 21
-26.855848156
 31
0.0
  0
LINE
  5
204
330
1B
100
AcDbEntity
 67
     1
  8
0
  6
Continuous
 62
     8
370
    25
100
AcDbLine
 10
9.0
 20
-25.6865030172
 30
0.0
 11
-9.0
 21
-25.6865030172
 31
0.0
  0
LINE
  5
205
330
1B
100
AcDbEntity
 67
     1
  8
0
  6
Continuous
 62
     8
370
    25
100
AcDbLine
 10
-8.8139512947
 20
-25.4869902072
 30
0.0
 11
8.8139512947
 21
-25.4869902072
 31
0.0
  0
LINE
  5
206
330
1B
100
AcDbEntity
 67
     1
  8
0
  6
Continuous
 62
     8
370
    25
100
AcDbLine
 10
8.2294069587
 20
-25.4461148853
 30
0.0
 11
-8.2294069587
 21
-25.4461148853
 31
0.0
  0
ARC
  5
207
330
1B
100
AcDbEntity
 67
     1
  8
0
  6
Continuous
 62
     7
370
    25
100
AcDbCircle
 10
-10.3
 20
-15.3518268283
 30
0.0
 40
0.2000000000000009
100
AcDbArc
 50
180.0
 51
253.0669679394
  0
ARC
  5
208
330
1B
100
AcDbEntity
 67
     1
  8
0
  6
Continuous
 62
     7
370
    25
100
AcDbCircle
 10
10.3
 20
-15.3518268283
 30
0.0
 40
0.2000000000000025
100
AcDbArc
 50
286.9330320606
 51
0.0
  0
ARC
  5
209
330
1B
100
AcDbEntity
 67
     1
  8
0
  6
Continuous
 62
     7
370
    25
100
AcDbCircle
 10
-10.0
 20
-27.86037961
 30
0.0
 40
0.5000000000000115
100
AcDbArc
 50
108.4349488229
 51
180.0
  0
ARC
  5
20A
330
1B
100
AcDbEntity
 67
     1
  8
0
  6
Continuous
 62
     7
370
    25
100
AcDbCircle
 10
10.0
 20
-27.86037961
 30
0.0
 40
0.5000000000000014
100
AcDbArc
 50
0.0
 51
71.5650511771
  0
ARC
  5
20B
330
1B
100
AcDbEntity
 67
     1
  8
0
  6
Continuous
 62
     7
370
    25
100
AcDbCircle
 10
9.2
 20
-26.855848156
 30
0.0
 40
0.2000000000000082
100
AcDbArc
 50
180.0
 51
251.5650511771
  0
ARC
  5
20C
330
1B
100
AcDbEntity
 67
     1
  8
0
  6
Continuous
 62
     7
370
    25
100
AcDbCircle
 10
-9.2
 20
-26.855848156
 30
0.0
 40
0.200000000000004
100
AcDbArc
 50
288.4349488229
 51
0.0
  0
ARC
  5
20D
330
1B
100
AcDbEntity
 67
     1
  8
0
  6
Continuous
 62
     7
370
    25
100
AcDbCircle
 10
-8.8
 20
-25.6865030172
 30
0.0
 40
0.2000000000000082
100
AcDbArc
 50
94.0
 51
180.0
  0
ARC
  5
20E
330
1B
100
AcDbEntity
 67
     1
  8
0
  6
Continuous
 62
     7
370
    25
100
AcDbCircle
 10
8.8
 20
-25.6865030172
 30
0.0
 40
0.2000000000000046
100
AcDbArc
 50
0.0
 51
86.0
  0
ARC
  5
20F
330
1B
100
AcDbEntity
 67
     1
  8
0
  6
Continuous
 62
     7
370
    25
100
AcDbCircle
 10
8.548742888
 20
-20.8793983369
 30
0.0
 40
4.577868004826208
100
AcDbArc
 50
106.9330320606
 51
266.0
  0
ARC
  5
210
330
1B
100
AcDbEntity
 67
     1
  8
0
  6
Continuous
 62
     7
370
    25
100
AcDbCircle
 10
-8.548742888
 20
-20.8793983369
 30
0.0
 40
4.57786800482621
100
AcDbArc
 50
274.0
 51
73.0669679394
  0
VIEWPORT
  5
882
330
1B
100
AcDbEntity
 67
     1
  8
0
100
AcDbViewport
 10
0.0
 20
0.0
 30
0.0
 40
205.6
 41
156.0
 68
     1
 69
     1
 12
0.0
 22
0.0
 13
0.0
 23
0.0
 14
10.0
 24
10.0
 15
10.0
 25
10.0
 16
0.0
 26
0.0
 36
1.0
 17
0.0
 27
0.0
 37
0.0
 42
50.0
 43
0.0
 44
0.0
 45
35.3753870846
 50
0.0
 51
0.0
 72
   100
 90
   557152
  1

281
     0
 71
     1
 74
     0
110
0.0
120
0.0
130
0.0
111
1.0
121
0.0
131
0.0
112
0.0
122
1.0
132
0.0
 79
     0
146
0.0
  0
ENDSEC
  0
SECTION
  2
OBJECTS
  0
DICTIONARY
  5
C
330
0
100
AcDbDictionary
281
     1
  3
ACAD_GROUP
350
D
  3
ACAD_LAYOUT
350
1A
  3
ACAD_MLINESTYLE
350
17
  3
ACAD_PLOTSETTINGS
350
19
  3
ACAD_PLOTSTYLENAME
350
E
  3
ACAD_SCALELIST
350
47
  0
DICTIONARY
  5
D
102
{ACAD_REACTORS
330
C
102
}
330
C
100
AcDbDictionary
281
     1
  0
DICTIONARY
  5
1A
102
{ACAD_REACTORS
330
C
102
}
330
C
100
AcDbDictionary
281
     1
  3
_Back
350
2F1
  3
_Bottom
350
4BE
  3
_Dimetric
350
784
  3
_Front
350
1E
  3
_Isometric
350
58C
  3
_Left
350
26
  3
_Right
350
3DB
  3
_Trimetric
350
688
  3
Model
350
22
  0
DICTIONARY
  5
17
102
{ACAD_REACTORS
330
C
102
}
330
C
100
AcDbDictionary
281
     1
  3
Standard
350
18
  0
DICTIONARY
  5
19
102
{ACAD_REACTORS
330
C
102
}
330
C
100
AcDbDictionary
281
     1
  0
ACDBDICTIONARYWDFLT
  5
E
102
{ACAD_REACTORS
330
C
102
}
330
C
100
AcDbDictionary
281
     1
  3
Normal
350
F
100
AcDbDictionaryWithDefault
340
F
  0
DICTIONARY
  5
47
102
{ACAD_REACTORS
330
C
102
}
330
C
100
AcDbDictionary
281
     1
  3
A0
350
48
  3
A1
350
49
  3
A2
350
4A
  3
A3
350
4B
  3
A4
350
4C
  3
A5
350
4D
  3
A6
350
4E
  3
A7
350
4F
  3
A8
350
50
  3
A9
350
51
  3
B0
350
52
  3
B1
350
53
  3
B2
350
54
  3
B3
350
55
  3
B4
350
56
  3
B5
350
57
  3
B6
350
58
  3
B7
350
59
  3
B8
350
5A
  3
B9
350
5B
  3
C0
350
5C
  3
C1
350
5D
  3
C2
350
5E
  3
C3
350
5F
  3
C4
350
60
  3
C5
350
61
  3
C6
350
62
  3
C7
350
63
  3
C8
350
64
  3
C9
350
65
  3
D0
350
66
  3
D1
350
67
  3
D2
350
68
  0
LAYOUT
  5
2F1
102
{ACAD_REACTORS
330
1A
102
}
330
1A
100
AcDbPlotSettings
  1

  2
none_device
  4
ISO_A4_(210.00_x_297.00_MM)
  6

 40
7.5
 41
20.0
 42
7.5
 43
20.0
 44
210.0
 45
297.0
 46
0.0
 47
0.0
 48
0.0
 49
0.0
140
0.0
141
0.0
142
1.0
143
0.2384615385
 70
   688
 72
     1
 73
     1
 74
     1
  7

 75
     0
147
4.1935483871
148
17.3408760219
149
30.0
100
AcDbLayout
  1
_Back
 70
     1
 71
     3
 10
0.0
 20
0.0
 11
0.0
 21
0.0
 12
0.0
 22
0.0
 32
0.0
 14
0.0
 24
0.0
 34
0.0
 15
0.0
 25
0.0
 35
0.0
146
0.0
 13
0.0
 23
0.0
 33
0.0
 16
1.0
 26
0.0
 36
0.0
 17
0.0
 27
1.0
 37
0.0
 76
     0
330
2F0
331
886
  0
LAYOUT
  5
4BE
102
{ACAD_REACTORS
330
1A
102
}
330
1A
100
AcDbPlotSettings
  1

  2
none_device
  4
ISO_A4_(210.00_x_297.00_MM)
  6

 40
7.5
 41
20.0
 42
7.5
 43
20.0
 44
210.0
 45
297.0
 46
0.0
 47
0.0
 48
0.0
 49
0.0
140
0.0
141
0.0
142
1.0
143
0.2384615385
 70
   688
 72
     1
 73
     1
 74
     1
  7

 75
     0
147
4.1935483871
148
17.3408760219
149
30.0
100
AcDbLayout
  1
_Bottom
 70
     1
 71
     5
 10
0.0
 20
0.0
 11
0.0
 21
0.0
 12
0.0
 22
0.0
 32
0.0
 14
0.0
 24
0.0
 34
0.0
 15
0.0
 25
0.0
 35
0.0
146
0.0
 13
0.0
 23
0.0
 33
0.0
 16
1.0
 26
0.0
 36
0.0
 17
0.0
 27
1.0
 37
0.0
 76
     0
330
4BD
331
88A
  0
LAYOUT
  5
784
102
{ACAD_REACTORS
330
1A
102
}
330
1A
100
AcDbPlotSettings
  1

  2
none_device
  4
ISO_A4_(210.00_x_297.00_MM)
  6

 40
7.5
 41
20.0
 42
7.5
 43
20.0
 44
210.0
 45
297.0
 46
0.0
 47
0.0
 48
0.0
 49
0.0
140
0.0
141
0.0
142
1.0
143
0.2384615385
 70
   688
 72
     1
 73
     1
 74
     1
  7

 75
     0
147
4.1935483871
148
17.3408760219
149
30.0
100
AcDbLayout
  1
_Dimetric
 70
     1
 71
     8
 10
0.0
 20
0.0
 11
0.0
 21
0.0
 12
0.0
 22
0.0
 32
0.0
 14
0.0
 24
0.0
 34
0.0
 15
0.0
 25
0.0
 35
0.0
146
0.0
 13
0.0
 23
0.0
 33
0.0
 16
1.0
 26
0.0
 36
0.0
 17
0.0
 27
1.0
 37
0.0
 76
     0
330
783
331
890
  0
LAYOUT
  5
1E
102
{ACAD_REACTORS
330
1A
102
}
330
1A
100
AcDbPlotSettings
  1

  2
none_device
  4
ISO_A4_(210.00_x_297.00_MM)
  6

 40
7.5
 41
20.0
 42
7.5
 43
20.0
 44
210.0
 45
297.0
 46
0.0
 47
0.0
 48
0.0
 49
0.0
140
0.0
141
0.0
142
1.0
143
0.2384615385
 70
   688
 72
     1
 73
     1
 74
     1
  7

 75
     0
147
4.1935483871
148
17.3408760219
149
30.0
100
AcDbLayout
  1
_Front
 70
     1
 71
     1
 10
-22.1101067911
 20
-31.7884615385
 11
48.712970132
 21
18.2884615385
 12
0.0
 22
0.0
 32
0.0
 14
-17.3408760219
 24
-30.0
 34
0.0
 15
17.3408760219
 25
16.5
 35
0.0
146
0.0
 13
0.0
 23
0.0
 33
0.0
 16
1.0
 26
0.0
 36
0.0
 17
0.0
 27
1.0
 37
0.0
 76
     0
330
1B
331
882
  0
LAYOUT
  5
58C
102
{ACAD_REACTORS
330
1A
102
}
330
1A
100
AcDbPlotSettings
  1

  2
none_device
  4
ISO_A4_(210.00_x_297.00_MM)
  6

 40
7.5
 41
20.0
 42
7.5
 43
20.0
 44
210.0
 45
297.0
 46
0.0
 47
0.0
 48
0.0
 49
0.0
140
0.0
141
0.0
142
1.0
143
0.2384615385
 70
   688
 72
     1
 73
     1
 74
     1
  7

 75
     0
147
4.1935483871
148
17.3408760219
149
30.0
100
AcDbLayout
  1
_Isometric
 70
     1
 71
     6
 10
0.0
 20
0.0
 11
0.0
 21
0.0
 12
0.0
 22
0.0
 32
0.0
 14
0.0
 24
0.0
 34
0.0
 15
0.0
 25
0.0
 35
0.0
146
0.0
 13
0.0
 23
0.0
 33
0.0
 16
1.0
 26
0.0
 36
0.0
 17
0.0
 27
1.0
 37
0.0
 76
     0
330
58B
331
88C
  0
LAYOUT
  5
26
102
{ACAD_REACTORS
330
1A
102
}
330
1A
100
AcDbPlotSettings
  1

  2
none_device
  4
ISO_A4_(210.00_x_297.00_MM)
  6

 40
7.5
 41
20.0
 42
7.5
 43
20.0
 44
210.0
 45
297.0
 46
0.0
 47
0.0
 48
0.0
 49
0.0
140
0.0
141
0.0
142
1.0
143
0.2384615385
 70
   688
 72
     1
 73
     1
 74
     1
  7

 75
     0
147
4.1935483871
148
17.3408760219
149
30.0
100
AcDbLayout
  1
_Left
 70
     1
 71
     2
 10
0.0
 20
0.0
 11
0.0
 21
0.0
 12
0.0
 22
0.0
 32
0.0
 14
0.0
 24
0.0
 34
0.0
 15
0.0
 25
0.0
 35
0.0
146
0.0
 13
0.0
 23
0.0
 33
0.0
 16
1.0
 26
0.0
 36
0.0
 17
0.0
 27
1.0
 37
0.0
 76
     0
330
23
331
884
  0
LAYOUT
  5
3DB
102
{ACAD_REACTORS
330
1A
102
}
330
1A
100
AcDbPlotSettings
  1

  2
none_device
  4
ISO_A4_(210.00_x_297.00_MM)
  6

 40
7.5
 41
20.0
 42
7.5
 43
20.0
 44
210.0
 45
297.0
 46
0.0
 47
0.0
 48
0.0
 49
0.0
140
0.0
141
0.0
142
1.0
143
0.2384615385
 70
   688
 72
     1
 73
     1
 74
     1
  7

 75
     0
147
4.1935483871
148
17.3408760219
149
30.0
100
AcDbLayout
  1
_Right
 70
     1
 71
     4
 10
0.0
 20
0.0
 11
0.0
 21
0.0
 12
0.0
 22
0.0
 32
0.0
 14
0.0
 24
0.0
 34
0.0
 15
0.0
 25
0.0
 35
0.0
146
0.0
 13
0.0
 23
0.0
 33
0.0
 16
1.0
 26
0.0
 36
0.0
 17
0.0
 27
1.0
 37
0.0
 76
     0
330
3DA
331
888
  0
LAYOUT
  5
688
102
{ACAD_REACTORS
330
1A
102
}
330
1A
100
AcDbPlotSettings
  1

  2
none_device
  4
ISO_A4_(210.00_x_297.00_MM)
  6

 40
7.5
 41
20.0
 42
7.5
 43
20.0
 44
210.0
 45
297.0
 46
0.0
 47
0.0
 48
0.0
 49
0.0
140
0.0
141
0.0
142
1.0
143
0.2384615385
 70
   688
 72
     1
 73
     1
 74
     1
  7

 75
     0
147
4.1935483871
148
17.3408760219
149
30.0
100
AcDbLayout
  1
_Trimetric
 70
     1
 71
     7
 10
0.0
 20
0.0
 11
0.0
 21
0.0
 12
0.0
 22
0.0
 32
0.0
 14
0.0
 24
0.0
 34
0.0
 15
0.0
 25
0.0
 35
0.0
146
0.0
 13
0.0
 23
0.0
 33
0.0
 16
1.0
 26
0.0
 36
0.0
 17
0.0
 27
1.0
 37
0.0
 76
     0
330
687
331
88E
  0
LAYOUT
  5
22
102
{ACAD_REACTORS
330
1A
102
}
330
1A
100
AcDbPlotSettings
  1

  2
none_device
  4
ANSI_A_(11.00_x_8.50_Inches)
  6

 40
6.35
 41
19.05
 42
6.35000508
 43
19.05000254
 44
279.4
 45
215.9
 46
133.34999746
 47
88.89999873
 48
0.0
 49
0.0
140
0.0
141
0.0
142
0.2426348008
143
1.0
 70
  1696
 72
     0
 73
     0
 74
     0
  7

 75
     0
147
0.0179189148
148
-1300.4909072572
149
0.0
100
AcDbLayout
  1
Model
 70
     1
 71
     0
 10
0.0
 20
0.0
 11
420.0
 21
297.0
 12
0.0
 22
0.0
 32
0.0
 14
-17.3408760219
 24
-17.3408760219
 34
0.0
 15
17.3408760219
 25
17.3408760219
 35
0.0
146
0.0
 13
0.0
 23
0.0
 33
0.0
 16
1.0
 26
0.0
 36
0.0
 17
0.0
 27
1.0
 37
0.0
 76
     0
330
1F
331
29
  0
MLINESTYLE
  5
18
102
{ACAD_REACTORS
330
17
102
}
330
17
100
AcDbMlineStyle
  2
Standard
 70
     0
  3

 62
   256
 51
90.0
 52
90.0
 71
     2
 49
0.5
 62
   256
  6
BYLAYER
 49
-0.5
 62
   256
  6
BYLAYER
  0
ACDBPLACEHOLDER
  5
F
102
{ACAD_REACTORS
330
E
102
}
330
E
  0
SCALE
  5
48
102
{ACAD_REACTORS
330
47
102
}
330
47
100
AcDbScale
 70
     0
300
1:1
140
1.0
141
1.0
290
     1
  0
SCALE
  5
49
102
{ACAD_REACTORS
330
47
102
}
330
47
100
AcDbScale
 70
     0
300
1:2
140
1.0
141
2.0
290
     0
  0
SCALE
  5
4A
102
{ACAD_REACTORS
330
47
102
}
330
47
100
AcDbScale
 70
     0
300
1:4
140
1.0
141
4.0
290
     0
  0
SCALE
  5
4B
102
{ACAD_REACTORS
330
47
102
}
330
47
100
AcDbScale
 70
     0
300
1:5
140
1.0
141
5.0
290
     0
  0
SCALE
  5
4C
102
{ACAD_REACTORS
330
47
102
}
330
47
100
AcDbScale
 70
     0
300
1:8
140
1.0
141
8.0
290
     0
  0
SCALE
  5
4D
102
{ACAD_REACTORS
330
47
102
}
330
47
100
AcDbScale
 70
     0
300
1:10
140
1.0
141
10.0
290
     0
  0
SCALE
  5
4E
102
{ACAD_REACTORS
330
47
102
}
330
47
100
AcDbScale
 70
     0
300
1:16
140
1.0
141
16.0
290
     0
  0
SCALE
  5
4F
102
{ACAD_REACTORS
330
47
102
}
330
47
100
AcDbScale
 70
     0
300
1:20
140
1.0
141
20.0
290
     0
  0
SCALE
  5
50
102
{ACAD_REACTORS
330
47
102
}
330
47
100
AcDbScale
 70
     0
300
1:30
140
1.0
141
30.0
290
     0
  0
SCALE
  5
51
102
{ACAD_REACTORS
330
47
102
}
330
47
100
AcDbScale
 70
     0
300
1:40
140
1.0
141
40.0
290
     0
  0
SCALE
  5
52
102
{ACAD_REACTORS
330
47
102
}
330
47
100
AcDbScale
 70
     0
300
1:50
140
1.0
141
50.0
290
     0
  0
SCALE
  5
53
102
{ACAD_REACTORS
330
47
102
}
330
47
100
AcDbScale
 70
     0
300
1:100
140
1.0
141
100.0
290
     0
  0
SCALE
  5
54
102
{ACAD_REACTORS
330
47
102
}
330
47
100
AcDbScale
 70
     0
300
2:1
140
2.0
141
1.0
290
     0
  0
SCALE
  5
55
102
{ACAD_REACTORS
330
47
102
}
330
47
100
AcDbScale
 70
     0
300
4:1
140
4.0
141
1.0
290
     0
  0
SCALE
  5
56
102
{ACAD_REACTORS
330
47
102
}
330
47
100
AcDbScale
 70
     0
300
8:1
140
8.0
141
1.0
290
     0
  0
SCALE
  5
57
102
{ACAD_REACTORS
330
47
102
}
330
47
100
AcDbScale
 70
     0
300
10:1
140
10.0
141
1.0
290
     0
  0
SCALE
  5
58
102
{ACAD_REACTORS
330
47
102
}
330
47
100
AcDbScale
 70
     0
300
100:1
140
100.0
141
1.0
290
     0
  0
SCALE
  5
59
102
{ACAD_REACTORS
330
47
102
}
330
47
100
AcDbScale
 70
     0
300
1/128" = 1'-0"
140
0.0078125
141
12.0
290
     0
  0
SCALE
  5
5A
102
{ACAD_REACTORS
330
47
102
}
330
47
100
AcDbScale
 70
     0
300
1/64" = 1'-0"
140
0.015625
141
12.0
290
     0
  0
SCALE
  5
5B
102
{ACAD_REACTORS
330
47
102
}
330
47
100
AcDbScale
 70
     0
300
1/32" = 1'-0"
140
0.03125
141
12.0
290
     0
  0
SCALE
  5
5C
102
{ACAD_REACTORS
330
47
102
}
330
47
100
AcDbScale
 70
     0
300
1/16" = 1'-0"
140
0.0625
141
12.0
290
     0
  0
SCALE
  5
5D
102
{ACAD_REACTORS
330
47
102
}
330
47
100
AcDbScale
 70
     0
300
3/32" = 1'-0"
140
0.09375
141
12.0
290
     0
  0
SCALE
  5
5E
102
{ACAD_REACTORS
330
47
102
}
330
47
100
AcDbScale
 70
     0
300
1/8" = 1'-0"
140
0.125
141
12.0
290
     0
  0
SCALE
  5
5F
102
{ACAD_REACTORS
330
47
102
}
330
47
100
AcDbScale
 70
     0
300
3/16" = 1'-0"
140
0.1875
141
12.0
290
     0
  0
SCALE
  5
60
102
{ACAD_REACTORS
330
47
102
}
330
47
100
AcDbScale
 70
     0
300
1/4" = 1'-0"
140
0.25
141
12.0
290
     0
  0
SCALE
  5
61
102
{ACAD_REACTORS
330
47
102
}
330
47
100
AcDbScale
 70
     0
300
3/8" = 1'-0"
140
0.375
141
12.0
290
     0
  0
SCALE
  5
62
102
{ACAD_REACTORS
330
47
102
}
330
47
100
AcDbScale
 70
     0
300
1/2" = 1'-0"
140
0.5
141
12.0
290
     0
  0
SCALE
  5
63
102
{ACAD_REACTORS
330
47
102
}
330
47
100
AcDbScale
 70
     0
300
3/4" = 1'-0"
140
0.75
141
12.0
290
     0
  0
SCALE
  5
64
102
{ACAD_REACTORS
330
47
102
}
330
47
100
AcDbScale
 70
     0
300
1" = 1'-0"
140
1.0
141
12.0
290
     0
  0
SCALE
  5
65
102
{ACAD_REACTORS
330
47
102
}
330
47
100
AcDbScale
 70
     0
300
1-1/2" = 1'-0"
140
1.5
141
12.0
290
     0
  0
SCALE
  5
66
102
{ACAD_REACTORS
330
47
102
}
330
47
100
AcDbScale
 70
     0
300
3" = 1'-0"
140
3.0
141
12.0
290
     0
  0
SCALE
  5
67
102
{ACAD_REACTORS
330
47
102
}
330
47
100
AcDbScale
 70
     0
300
6" = 1'-0"
140
6.0
141
12.0
290
     0
  0
SCALE
  5
68
102
{ACAD_REACTORS
330
47
102
}
330
47
100
AcDbScale
 70
     0
300
1'-0" = 1'-0"
140
12.0
141
12.0
290
     0
  0
ENDSEC
  0
EOF
